música
Buscador

Acorde de Our Farewell - Within Temptation

Letra de Our Farewell



Intro: C#m A E B C#m A

Am E



Verse 1 :E E/D#

In my hands

C#m B F#m

A legacy of memories

E B

I can hear you say my name

E E/D# C#m B

I can almost see your smile

F#m E B

Feel the warmth of your embrace

C#m A E B

But there is nothing but silence now

C#m B A

Around the one I loved

B G#

Is this our farewell?



Chorus: C#m A E B C#m

Sweet darling you worry too much, my child

A B

See the sadness in your eyes

C#m A E B

You are not alone in life

A B E

Altough you migth think that you are



Verse 2: Never tought

This day would come so soon

We had no time to say goodbye

How can the world just carry on?

I feel so lost when you are not by my side

But there is nothing but silence now

Around the one I loved

Is this our farewell?

https://www.coveralia.com/acordes/our-farewell-within-temptation.php



Chorus



Solo:



F# C# F# C#

B C#

E|----------------------------------------------------------------------|

B|-----7--6-----------------7--6-----------------7--6-------------------|

G|-----------6-----6-----8--------6-----6-----8--------6-----8--8/6--6--|

D|--------------8--------------------8--------------------8-------------|

A|----------------------------------------------------------------------|

E|----------------------------------------------------------------------|



F# C# F# C#

B C#

E|----------------------------------------------------------------------|

B|-----7--6-----------------7--6-----------------7--6-------------------|

G|--8--------6-----6-----8--------6-----6-----8--------6-----8--8/6--6--|

D|--------------8--------------------8--------------------8-------------|

A|----------------------------------------------------------------------|

E|----------------------------------------------------------------------|





Outro C#m A E B C#m

So sorry your world is tumbling down

A B

I will watch you through these nights

C#m A E B

Rest your head and go to sleep

A B E

Because my child, this is not our farewell

A B E

This is not our farewell





Letra subida por: Anónimo

Discos en los que aparece este acorde: Mother Earth , Mother Earth (Limited Edition)

El acorde de Our Farewell de Within Temptation es una versión de la canción original realizada por colaboradores/usuarios de Coveralia.

¿Has encontrado algún error en esta página? Envíanos tu corrección del acorde