música
Buscador

Acorde de Ouija - Los Enemigos

Letra de Ouija

Riff 1:

e|-----------------------------------------------

B|-9-x-x-9-x---------------7-x-x-7---------------

G|-9-x-x-9-x-8-8-8-x-6-x-x-7-x-x-7-6-6-6-x-4-x-x-

D|-9-x-x-9-x-9-9-9-x-7-x-x-7-x-x-7-7-7-7-x-5-x-x-

A|-7-x-x-7-x-9-9-9-x-7-x-x-5-x-x-5-7-7-7-x-5-x-x-

E|-----------7-7-7-x-5-x-x---------5-5-5-x-3-x-x-



------------------------------------|

4-x-x-4-x---------------2-x---x-2-4-|

4-x-x-4-x-3-3-3-x-1-x-x-2-x-2-x-2-4-|

4-x-x-4-x-4-4-4-x-2-x-x-2-x-2-x-2-4-|

2-x-x-2-x-4-4-4-x-2-x-x-0-x-1-x-0-2-|

----------2-2-2-x-0-x-x-----0-------|



Intro: Riff 1 x2



MI SI

Dime si es verdad

MI Riff 2:

que al fin descansas e|-----------------------------------------|

B|-9-x-x-9-x-------------7-x-x-7-----------|

G|-9-x-x-9-x-8-8-8-x-6-x-7-x-x-7-6-6-6-x-4-|

D|-9-x-x-9-x-9-9-9-x-7-x-7-x-x-7-7-7-7-x-5-|

A|-7-x-x-7-x-9-9-9-x-7-x-5-x-x-5-7-7-7-x-5-|

E|-----------7-7-7-x-5-x---------5-5-5-x-3-|

MI

Dime si es verdad

Riff 2

no oigo tu voz



Cuéntame que ves

Riff 3:

tan lejos e|---------------------------------------------|

B|-4-x-x-4-x---------------4-x-x-4-x-----------|

G|-4-x-x-4-x-3-3-3-x-1-x-x-4-x-x-4-x-3-3-3-x-1-|

D|-4-x-x-4-x-4-4-4-x-2-x-x-4-x-x-4-x-4-4-4-x-2-|

A|-2-x-x-2-x-4-4-4-x-2-x-x-2-x-x-2-x-4-4-4-x-2-|

https://www.coveralia.com/acordes/ouija-los-enemigos.php

E|-----------2-2-2-x-0-x-x-----------2-2-2-x-0-|

Al otro lado del

Riff 4:

espejo e|-------------------------------------------|

B|-4-x-x-4-x---------------4-x-x-4-x---------|

G|-4-x-x-4-x-3-3-3-x-1-x-x-4-x-x-4-x-3-4-6-8-|

D|-4-x-x-4-x-4-4-4-x-2-x-x-4-x-x-4-x-4-5-7-9-|

A|-2-x-x-2-x-4-4-4-x-2-x-x-2-x-x-2-x-4-5-7-9-|

E|-----------2-2-2-x-0-x-x-----------2-3-5-7-|



Riff 1 x1



¿Es verdad que no hay

Riff 2

calor ni frío?



¿Hablaste con Él?

Riff 2

¿Le has visto ya?



¿Eres aún amigo

Riff 3

mío?



¿Viste ya a todos

Riff 4

los demás?



Riff 1 x1 (Solo)



SI



Riff 1 x3

Cuéntame que ves

Cuéntame que ves

Cuéntame que ves

tan lejos

Letra subida por: Anónimo

Discos en los que aparece este acorde: La Vida Mata , Obras Escocidas (1985-2000)

El acorde de Ouija de Los Enemigos es una versión de la canción original realizada por colaboradores/usuarios de Coveralia.

¿Has encontrado algún error en esta página? Envíanos tu corrección del acorde