Quantcast
música
Buscador

Acorde de Otra Parte De Mí 2002 - Aleks Syntek

Letra de Otra Parte De Mí 2002

[intro]

[teclado]

             A#            G#         Gm            G#maj7



   A#            G#         Gm            G#
e--6---6---6--|--4-4--4--|--3---3---3--|--4-4--4----------------
B--6---6---6--|--4-4--4--|--3---3---3--|--4-4--4----------------
G-------------|----------|-------------|------------------------
D-------------|----------|-------------|------------------------
A-------------|----------|-------------|------------------------
E-------------|----------|-------------|------------------------



[repite el riff con los acordes]


A#                        G#        Gm                 G#
  Como voy a perderte asi    cuando todo iba marchando bien

A#                      G#        Gm                    G#
  como voy a dejarte ir    si el amor se encontraba aqui 

  no me puedes dejar caer, o es que a caso no lo has notado aun
  ya no soy el mismo de ayer y hasta ahora lo pude ver



[coro]

   A#            G#         Gm            G#
 --6---6---6--|--4-4--4--|--3---3---3--|--4-4--4----------------
 --6---6---6--|--4-4--4--|--3---3---3--|--4-4--4----------------
 -------------|----------|-------------|------------------------
 -------------|----------|-------------|------------------------
 -------------|----------|-------------|------------------------
 -------------|----------|-------------|------------------------


      A#       G#                    Gm
  y estoy descubriendo otra parte de mi

         G#                A#        G#          Gm
  lo que tu te quisiste llevar yo lo voy a recuperar

        G#               A#    A#7
  hasta que tu regreses aqui, aqui




[repite el riff con los acordes]


  tengo delante el corazon en lo bueno y lo malo que hay en mi
  y es el error que cometi por el crimen de ser feliz

  se que podemos continuar y buscar otra forma de pensar
  y es que no tengo mas de lo que soy
  pues sin ti ya no puedo ser yo


[coro]


      A#       G#                    Gm
  y estoy descubriendo otra parte de mi

         G#                A#        G#          Gm
  lo que tu te quisiste llevar yo lo voy a recuperar

        G#               A#    A#7
  hasta que tu regreses aqui, aqui



[puente]


Cm7                  F7                   G#
  ya eh buscado la mitad, una forma de llenar

                    C#maj7   Cm
  y siempre seguire esperandote



[despues]


   A#            G#         Gm            G#
 --6---6---6--|--4-4--4--|--3---3---3--|--4-4--4----------------
 --6---6---6--|--4-4--4--|--3---3---3--|--4-4--4----------------
 -------------|----------|-------------|------------------------
 -------------|----------|-------------|------------------------
 -------------|----------|-------------|------------------------
 -------------|----------|-------------|------------------------ [2x]



[coro]


   C             A#         Am7           A#
 --8---8---8--|--6-6--6--|--5---5---5--|--6-6--6----------------
 --8---8---8--|--6-6--6--|--5---5---5--|--6-6--6----------------
 -------------|----------|-------------|------------------------
 -------------|----------|-------------|------------------------
 -------------|----------|-------------|------------------------
 -------------|----------|-------------|------------------------


      C        A#                    Am7
  y estoy descubriendo otra parte de mi

         A#                C         A#          Am7
  lo que tu te quisiste llevar yo lo voy a recuperar

        A#               C     C7
  hasta que tu regreses aqui, aqui


      C        A#                    Am7
  y estoy descubriendo otra parte de mi

         A#                C         A#          Am7
  lo que tu te quisiste llevar yo lo voy a recuperar

        A#             
  hasta que tu regreses.....[se repite]


Letra subida por: Anónimo

Discos en los que aparece este acorde: 12 Favoritas

El acorde de Otra Parte De Mí 2002 de Aleks Syntek es una versión de la canción original realizada por colaboradores/usuarios de Coveralia.

¿Has encontrado algún error en esta página? Envíanos tu corrección del acorde