música
Buscador

Acorde de Only Love - Alkaline Trio

Letra de Only Love

Intro: F#m A D (Dsus2  D) 

F#m A D (Dsus2 D)



F#m A D (Dsus2 D)

Woah oh oh,

F#m C#m D (Dsus2 D)

Woah oh oh



Bm F#m A

How young are you gonna be when you die?

D Bm

I guess I never really thought about that

F#m /G# A

You're dying when you start thinking like that

E

All I know is time is undefeated so far

Bm F#m A

Get right with god before it's time

D Bm

I hear the telephone works both ways

F#m /G# A

Think you can make a little effort some day?

E

I got an awful lot going on with the things that

Bm E C#m F#m

I can see and what I see are the reasons that I bleed

Bm F#m D

And the blood I give to her and her that's all there is



A Bm D

It's only love That keeps us here

A E D

And this food and these drinks they're all poison

A Bm D

And life is dead so die well with some good distractions

F#m E D

At the end there is only love





F#m A D (Dsus2 D)

Woah oh oh,

F#m C#m D (Dsus2 D)

Woah oh oh



Bm F#m A

Seperate these lies like there's a truth

D Bm

I didn't know it if I had told you

F#m /G# A

You've all been lying since you murdered my youth

E Bm

I know you're gonna take what's left but you'll never see me run

E C#m F#m

No, here I am can you see what's in these hands?

Bm F#m D

https://www.coveralia.com/acordes/only-love-alkaline-trio.php

It's everything I need to see to breath to feel



A Bm D

It's only love That keeps us here

A E D

And this food and these drinks they're all poison

A Bm D

And life is dead so die well with some good distractions

F#m E D

At the end there is only love



Bridge: A E F#m D E



e|----5--7--9--7---5-4------------5--7--9--7----------------|

B|--5---------------------------5--------------9--7---------|

G|----------------------------------------------------------|

D|----------------------------------------------------------|

A|----------------------------------------------------------|

E|----------------------------------------------------------|



e|------7--9--7--------5--7-----------------------------------|

B|----7-----------5--7-------3---2-2h3p2----------------------|

G|--7------------------------------------2--------------------|

D|------------------------------------------------------------|

A|------------------------------------------------------------|

E|------------------------------------------------------------|







A E F#m

I lie awake on this earth, I lay with all that I love

D E C#m-F#m-C#m-D-Bm-A-D-E

And all I need on this earth, and what's belooow



A Bm D

It's only love That keeps us here

A E D

And this food and these drinks they're all poison

A Bm D

And life is dead so die well with some good distractions

F#m E D

At the end there is only love

F#m C#m D

At the end there is only love



F#m A D (Dsus2 D)

Woah oh oh,

F#m C#m D (Dsus2 D)

Woah oh oh



F#m A D (Dsus2 D)

Woah oh oh,

F#m C#m D

Woah oh oh

Letra subida por: Anónimo

Discos en los que aparece este acorde: My Shame Is True

El acorde de Only Love de Alkaline Trio es una versión de la canción original realizada por colaboradores/usuarios de Coveralia.

¿Has encontrado algún error en esta página? Envíanos tu corrección del acorde