música
Buscador

Acorde de On The Road - Pier

Letra de On The Road

F#m  Bm  E   D

Intro







E|---------------------------------|

B|---------------------------------|

G|---10---10-12---12-12-10-12------| x2

D|-12--12--------------------12----|

A|---------------------------------|

E|---------------------------------|



E|-------------------------|

B|-------------------------|

G|---10---10-12-10-12------|

D|-12--12-------------12---|

A|-------------------------|

E|-------------------------|



E|---------------------------------|

B|---------------------------------|

G|---10---10-12---12-12-10-12------|

D|-12--12--------------------12----|

A|---------------------------------|

E|---------------------------------|





F#m F#m

Lo dejaste pasar, te invitaste al dolor

F#m F#m

te mordiste la lengua, le rajaste al amor

Bm Bm

te perdiste, y no arriesgaste a volar

F#m E F#m

y te asustas de mi emocion

D E F#m

y me dejas en la calle a morir

F#m F#m

no hay frontera, en esta historia on the road

F# F#m

ni siquiera una gota de comprensión

Bm Bm

melodía que sabia que algún día

F#m E F#m

terminará, terminará

D E F#m

https://www.coveralia.com/acordes/on-the-road-pier.php

por robarnos el corazón a los dos

E F#m

te escapaste de repente

E F#m

te me fuiste a donde nunca voy

D E D E

debo dejar de pensar





D E F#m

en tenerte junto a mi







E|---------------------------------|

B|---------------------------------|

G|---10---10-12---12-12-10-12------|

D|-12--12--------------------12----|

A|---------------------------------|

E|---------------------------------|



E|-------------------------|

B|-------------------------|

G|---10---10-12-10-12------|

D|-12--12-------------12---|

A|-------------------------|

E|-------------------------|



parte 2 igual a la primera

E

sueño con volver

F#m

volverte a tener



a tenerte junto a mi..







*a los que recien empiezan y les cuesta reemplacen por

Em

Am

C

D



Letra subida por: Anónimo

El acorde de On The Road de Pier es una versión de la canción original realizada por colaboradores/usuarios de Coveralia.

¿Has encontrado algún error en esta página? Envíanos tu corrección del acorde