música
Buscador

Acorde de Olho Calmo - Pitty

Letra de Olho Calmo

Tom: C

Intro: Am  D7

Base: Am  D7


E|------------------------------------------------------------------------------------------------
B|-----------------------------------------------------------------------------------------------
G|------------------------------------------------------------------------------------------------
D|--------------------------------------7---7-----------------------------------------------------
A|---------------5/75---------5h7-----------75------5h7-------------5/75-------5h7--5-----/7~~
E|---5---5-8------------8---------------------------8---------5---5-8-----------8-----------------



1ª Parte

Am             D7
Nem pensava que
     Am         D7
Essa hora ia chegar
Am              D7
Saber não insistir
          Am            D7
Nessa história de se gastar

Riff


E|----------------------8--------------------10-
B|--87-7---------------8------10H12---------10-
G|--76-6---------------8--------------------10-
D|-------------7H9-7----------------------------
A|----------------------------------------------
E|----------------------------------------------


Refrão

E depois do rancor, respirar
Vigiar ao redor e respirar


E|----------------------------------------------------------------
B|----------------------------------------------------------------
G|----------------------------------------------------------------
D|----------------------------------------------------------------
A|-3-3-3-3-3---3-3-3-2-3-3-3-3-5---3-3-3-3-3---3-3-3-2-3-3-3-3-5--
E|-1-1-1-1-1---1-1-1-0-1-1-1-1-3---1-1-1-1-1---1-1-1-0-1-1-1-1-3--


E|------------------------------------------------------------------
B|------------------------------------------------------------------
G|------------------------------------------------------------------
D|------------------------------------------------------------------
A|-------------------7-7-7-7-7-7-7-------------7-7-7----------------
E|-5-5-5-7-7-7-8-8-8---------------5-5-5-8-8-8-------7-7-7-7-7-7-7--


E|------------------------------------------------------------------------
B|------------------------------------------------------------------------
G|------------------------------------------------------------------------
D|------------------------------------------------------------------------
A|-3-3-3-3-3---3-3-3-2-3-3-3-3-5---3-3-3-3-3---3-3-3-2-3-3-3-3--5---7~~~--
E|-1-1-1-1-1---1-1-1-0-1-1-1-1-3---1-1-1-1-1---1-1-1-0-1-1-1-1--3---5~~~--



2ª Parte

Am                D7
O traquejo de esperar
       Am              D7
A hora certa de esbravejar
    Am               D7
Fumegando de vazio e pó
          Am
Gozo sozinho
            D7
Sem dó, sem nada


Refrão com Nova Frase

E depois do rancor, respirar
Vigiar ao redor e respirar


E|----------------------------------------------------------------
B|----------------------------------------------------------------
G|----------------------------------------------------------------
D|----------------------------------------------------------------
A|-3-3-3-3-3---3-3-3-2-3-3-3-3-5---3-3-3-3-3---3-3-3-2-3-3-3-3-5--
E|-1-1-1-1-1---1-1-1-0-1-1-1-1-3---1-1-1-1-1---1-1-1-0-1-1-1-1-3--


E|------------------------------------------------------------------
B|------------------------------------------------------------------
G|------------------------------------------------------------------
D|------------------------------------------------------------------
A|-------------------7-7-7-7-7-7-7-------------7-7-7----------------
E|-5-5-5-7-7-7-8-8-8---------------5-5-5-8-8-8-------7-7-7-7-7-7-7--


(x2)

Aprender a usar o olho calmo


E|------------------------------------------------------------------
B|------------------------------------------------------------------
G|------------------------------------------------------------------
D|------------------------------------------------------------------
A|-3-3-3-3-3---3-3-3-2-3-3-3-3-5---3-3-3-3-3---3-3-3-2-3-3-3-3-5-7--
E|-1-1-1-1-1---1-1-1-0-1-1-1-1-3---1-1-1-1-1---1-1-1-0-1-1-1-1-3-5--


Solo

Repete Refrão com Nova Frase


3ª Parte

Am                               F
Do cão que já nem ladra mais, só morde
                                 Am
Do cão que já nem ladra mais, só morde
                                 F
Do cão que já nem ladra mais, só morde
                                 Am
Do cão que já nem ladra mais, só morde
                                 F
Do cão que já nem ladra mais, só morde
                                 Am
Do cão que já nem ladra mais, só morde
                                 F
Do cão que já nem ladra mais, só morde morde morde

G


Letra subida por: Byel

Discos en los que aparece este acorde: Setevidas

El acorde de Olho Calmo de Pitty es una versión de la canción original realizada por colaboradores/usuarios de Coveralia.

¿Has encontrado algún error en esta página? Envíanos tu corrección del acorde