música
Buscador

Acorde de Oh God - Jamie Cullum

Letra de Oh God

Intro

G/B F#/B F#dim/B G/B



Verse 1

G/B

I know It's been a while

F#/B F#dim/B

Since I

G/B G/B F#dim/B F/B G/B

Have talked to you

G/B

But maybe your the one

F#/B F#dim/B

Who makes

G/B Am7 D9 B7

The winds blow.



Verse 2

Em7

Looking at the stars

F#/E F#dim/E

Without

Em7 F#/E F#dim/E Em7

Explanation

Em7

We contemplate as kings

F#/E F#dim/E Em7

And simple

Am7 D9

Men on trial

Am7

Little world's

D9 B7

Fragile



Chorus (1)

C#m7

Oh

D#m7

God can you

Esus2

Tell us when it's going

F#

To stop?

C#m7

Maybe it's

Bsus2

Not just

E G#

Down to you

C#m7

Oh

D#m7

God

Esus2

Can't we win back what

F#

We have lost?

F#m7 F#m7/B

So who's the last resort

(Em7 F#/E F#dim/E Em7)x2

Oh God



Verse 2

Em7 F#/E

Tumbling towards

F#dim/E

Unclear

Em7 F#/E F#dim/E Em7

Destination Do they

Em7 F#/E

Wash away the pain?

https://www.coveralia.com/acordes/oh-god-jamie-cullum.php

F#dim/E

The wind,

Em7

And the

Am7

Searing

D9

Rains as our

Am7

Powers

D9 B7

Interchange



Chorus (1)



Saxophone solo



(Em7 F#/E F#dim/E Em7)x3

Am7 D9 Am7 D9



Chorus (2)



Dm7

Oh

Em7

God can you

F6

Tell us when it's going

G9

To stop?

Dm7

Maybe it's

Em7

Not Just

F6

Down to you

A Dm7

Oh

Em7

God

F6

Can we give back what

G9

We have lost? So

Gm7 C9

Who's the last resort?



Outro



(Fm7 G/F F#/F Fm7)x4



Chords



G/B F#/B F#dim/B Em7 F#/E F#dim/E Am7 D9 B7 C#m7 D#m7 Esus2 F# Bsus2 E G#

e 3---2----2-------0---2----2-------0---*--2--4----6----7-----2--2-----0-4-

B 0---2----1-------0---2----1-------1---5--4--5----7----7-----2--2-----0-4-

G 0---3----2-------0---3----2-------0---5--2--4----6----9-----3--4-----1-5-

D 0---4----*-------0---4----4-------2---4--4--6----8----9-----4--4-----2-6-

A 2---2----2-------2---4----0-------0---5--2--4----6----7-----4--2-----2-6-

E *---*----*-------0---0----0-------*---*--*--*----*----*-----2--*-----0-4-



F#m7 F#m7/B Dm7 F6 G9 A Gm7 C9 Fm7 G/F F#/F

e 2----2------1----1--5--0-3---*--1---3---2-|

B 2----2------1----3--3--2-3---3--1---0---2-|

G 2----2------2----2--4--2-3---3--1---0---3-|

D 2----2------0----3--3--0-3---2--1---0---4-|

A 4----2------*----3--5--0-5---3--3---2---1-|

E 2----*------*----1--3--*-3---*--1---1---1-|





Letra subida por: Anónimo

Discos en los que aparece este acorde: Catching Tales , Catching Tales (Limited Edition)

El acorde de Oh God de Jamie Cullum es una versión de la canción original realizada por colaboradores/usuarios de Coveralia.

¿Has encontrado algún error en esta página? Envíanos tu corrección del acorde