música
Buscador

Acorde de Nosso Amor - Rbd

Letra de Nosso Amor





INTRO: E C#m A B



**E** **c#m**

e|--7---7--7--7|---7--7---7---7|---7---7--7--7|---7--7--7---7|e

b|--5-4-----4--|-5--4-------4--|-5---4------4-|-5---4-----4--|b

g|-------6-----|--------6------|--------6-----|--------6-----|g

D|-------------|---------------|--------------|--------------|D

A|-------------|---------------|-4------------|-4------------|A

E|--0----------|-0-------------|--------------|--------------|E



**A** **B** B

e|---7--7--7--7|---7---7---7--7|---7---7--7--7|---7---7--7--7|--2--|e

b|-5---4-----4-|-5---4------4--|-5---4-----4--|-5---4-----4--|--5--|b

g|--------6----|---------6-----|---------6----|---------6----|--x--|g

D|-------------|---------------|--------------|--------------|--x--|D

A|-0-----------|-0-------------|--------------|--------------|--2--|A

E|-------------|---------------|-7------------|-7------------|--x--|E



E C#m

Foi tão mágico o jeito que tomou

F#m

No nosso amor (nosso amor)

B

Nosso doce amor

E C#m

Foi um raio que bateu dentro da gente

F#m

Nosso amor

B

nosso incrível amor

F#m B

Tudo foi como num sonho

F#m

No nosso amor

B

as coisas não tem tempo





E

E é assim

C#m

assim é F#m B

E repete tantas vezes

E

É assim

C#m

Assim é

F#m B

é assim que acontece

E

esse amor



E

É tão simples

C#m

que nem sei como explicar

F#m

nosso amor

B

https://www.coveralia.com/acordes/nosso-amor-rbd.php

nosso doce amor

E

Mas eu vou não importa

C#m

o tempo que durar

F#m B

Enquanto for será o melhor



F#m B

Tudo foi como num sonho

F#m

No nosso amor

B

as coisas não tem tempo

E

E é assim

C#m

assim é F#m B

E repete tantas vezes

E

é assim

C#m

Assim é

F#m B

é assim que acontece

E

esse amor

C#m

Assim é

F#m B

E repete tantas vezes

E

E é assim

C#m

Assim é

F#m B

é assim que acontece

E

este amor





C#m F#m A B (2X)



F

E é assim

Dm

assim é

Gm C

E repete tantas vezes

F

é assim

Dm

Assim é

Gm C

É assim que acontece

F

Esse amor





Letra subida por: Anónimo

Discos en los que aparece este acorde: Nosso Amor Rebelde (Edicão Brasil) , Hits Em Portugues

El acorde de Nosso Amor de Rbd es una versión de la canción original realizada por colaboradores/usuarios de Coveralia.

¿Has encontrado algún error en esta página? Envíanos tu corrección del acorde