música
Buscador

Acorde de Nose Over Tail - Alkaline Trio

Letra de Nose Over Tail



Standard Tuning



B E C#m A A7 E7 F#m

|-2-| |-0-| |-4-| |-5-| |-5-| |---| |-2-|

|-4-| |-0-| |-5-| |-5-| |-5-| |---| |-2-|

|-4-| |-1-| |-6-| |-6-| |-6-| |-8-| |-2-|

|-4-| |-2-| |-6-| |-7-| |-7-| |-x-| |-4-|

|-2-| |-2-| |-4-| |-7-| |-7-| |-6-| |-4-|

|---| |-0-| |---| |-5-| |-4-| |-0-| |-2-|



Intro

B E B E



Verse

B E

Crack my head open on your kitchen floor

B E

To prove to you that I have brains

B E

Meanwhile tin men are led by little girls

B E

Down golden roads that lead to nowhere



Chorus

C#m

A A7

Fine time to fake a seizure

C#m A

Feel your mouth on mine,

B

You're saving me



Post-Chorus

(Very Basic Tab)

e|-------------------------------------------------------------------|

B|-------------------------------------------------------------------|

G|--------9-----9-8-4-----4-----4---6---6---8---8---9-----9-----9----|

D|--2-----x-----x-x-x-----x-----x---x---x---x---x---x-----x-----x----|

A|--2-----7-7-7-7-6-2-2-2-2-2-2-2-2-4-4-4-4-6-6-6-6-7-7-7-7-7-7-7-7--|

E|--0-0-0-0-0-0-0-0-0-0-0-0-0-0-0-0-0-0-0-0-0-0-0-0-0-0-0-0-0-0-0-0--| x2

https://www.coveralia.com/acordes/nose-over-tail-alkaline-trio.php



Verse

B E B E

B E

Whatever happened to that silly dream you had?

B E

I want to make it real I'd love to rub your back

B E

Like a plane crash that never hits the ground

B E

I fall in love with you I'm nose over tail for you



Chorus

C#m

A A7

Your voice like the sound of sirens

C#m A

To a house on fire

B

You're saving me



Outro



E~ E7~ E~ E7~



E E7 E E7 A F#m



E~ E7~ E~ E7~



E E7 E E7 A F#m



(Get a couple extra strums in every repeat until you are flailing your arm like a mad man)

e|-------------------------------------------------------------------|

B|-------------------------------------------------------------------|

G|--------9-----9-8-4-----4-----4---6---6---8---8---9-----9-----9----|

D|--2-----x-----x-x-x-----x-----x---x---x---x---x---x-----x-----x----|

A|--2-----7-7-7-7-6-2-2-2-2-2-2-2-2-4-4-4-4-6-6-6-6-7-7-7-7-7-7-7-7--|

E|--0-0-0-0-0-0-0-0-0-0-0-0-0-0-0-0-0-0-0-0-0-0-0-0-0-0-0-0-0-0-0-0--| x4 End with a big ol' E





Letra subida por: Anónimo

Discos en los que aparece este acorde: Goddamnit , Damnesia , Alkaline Trio

El acorde de Nose Over Tail de Alkaline Trio es una versión de la canción original realizada por colaboradores/usuarios de Coveralia.

¿Has encontrado algún error en esta página? Envíanos tu corrección del acorde