música
Buscador

Acorde de Nos Dolerá - Andres De Leon

Letra de Nos Dolerá



Intro:



G Em7 D

e|----------------------------|-----------------------|--2------------|

b|-1-----0--------------------|-1-----0---------------|--3------------|

g|---0-----0---2----2-0---0---|---0-----0---2-----2-0-|--2------0-2---|

D|-----0-----0----0-----0-----|-----2-----2-----2-----|--0--2/4-----0-|

A|----------------------------|---------------2-------|--x------------|

E|-3-----3-----3------3-----3-|-0-----0-----0-------0-|--x------------|



C D G

e|-0------------|--2-----|----3----|

b|-1------------|--3-----|----3----|

g|-0---------0--|--2-----|----0----|

D|-2----2/4-----|--0-----|----0----|

A|-3------------|--x-----|----2----|

E|-x------------|--x-----|----3----|



G

Tu indecisión mi frustración miradas que no miran nada,

Em7 D

el corazón colgado en la pared, es que seguir así ya no tiene sentido

Cadd9 D

porque no sé si alguna vez algo sentimos





G

No cambiare no cambiaras es la verdad,

Em7

ya no hay manera de mentir de sobreactuar,

D

porque jugamos sin medir y nos herimos,

Cadd9 D

porque no sé si alguna vez algo sentimos







Cadd9 Em7 C D

Y me iré y te iras, sin tener un mapa sin tener destino…







Coro:



G D/F# Em Cadd9

Nos dolerá, vivir sabiendo que no hemos vivido, nos dolerá pensar,

Am7 D Cadd9-D

las cosas que en vano prometimos.

G D/F# Em D Cadd9

Nos dolerá, el beso ese tiempo que perdimos, nos dolerá aceptar

G Am7 D

https://www.coveralia.com/acordes/nos-dolera-andres-de-leon.php
las marcas en la piel los besos de papel, que nada fue

G

real, solo fingimos





G

Resignación a la ilusión tu ausencia que duerme en mi almohada,

Em7 D

y en el cajón caricias que guarde, por que seguir así ya no tiene sentido

Cadd9 D

porque no sé si alguna vez algo sentimos





Cadd9 Em7 C D Cadd9-D

Y me iré y te iras, sin tener un mapa sin tener destino…





CORO:



G

Nos dolerá ...





PUENTE:



Bm-C-Em-D

Bm-C-Dsus4-D





CORO:



G Em D-Em

Nos dolerá, vivir sabemos que no hemos vivido,

Cadd9 Am7-Am/G D Cadd9-D

nos dolerá, pensar las cosas que en vano prometimos

G D/F# Em

Nos dolerá, el beso este tiempo que perdimos,

Cadd9 G Am7 D

nos dolerá aceptar las marcas en la piel los besos de papel que nada fue real

G

solo fingimos



(termina con una parte del intro)



Cadd9 D/F# Dsus4 Am/G

e|----3----|----2----|----3----|----0----|

b|----3----|----3----|----3----|----1----|

g|----0----|----2----|----2----|----2----|

D|----2----|----0----|----0----|----2----|

A|----3----|----0----|----x----|---------|

E|----x----|----2----|----x----|----3----|

Letra subida por: Anónimo

El acorde de Nos Dolerá de Andres De Leon es una versión de la canción original realizada por colaboradores/usuarios de Coveralia.

¿Has encontrado algún error en esta página? Envíanos tu corrección del acorde