música
Buscador

Acorde de No Voy Más Lejos - Leño

Letra de No Voy Más Lejos



s: Slide b: Bend



RIFF 1



1.------------------|-----------------|-------------------------|

2.------------------|-----------------|-------------------------|

3.------------------|-----------------|-------------------------|

4.---------------3--|--------------5--|--------------3---5---3--|

5.---5-5--x-x-x--1--|--5-5--x-x-x--3--|--5-5--x-x-x--1---3---1--|

6.---3-3--x-x-x-----|--3-3--x-x-x-----|--3-3--x-x-x-------------|



RIFF 2



1.----------------------------------------------|

2.----------------------------------------------|

3.---------------5s4----------------------------|

4.---------5s4---3s2---4s5---------5--4--3------|

5.---3s5---3s2---------2s3---3s5---3--2--1------|

6.---1s3---------------------1s3----------------|



RIFF 3





1.----------------------------------------------|

2.----------------------------------------------|

3.---------------5s4----------------------------|

4.---------5s4---3s2---4s5--4s5---------5--4--3-|

5.---3s5---3s2---------2s3--2s3---3s5---3--2--1-|

6.---1s3--------------------------1s3-----------|



Fill 1 Fill 2



1.----------------------------| 1.--------------------------|

2.----------------------------| 2.--------------------------|

3.----------3--------3--------| 3.----------3--b5--3--------|

4.----3--5-----3--5-----------| 4.----3--5------------------|

5.----------------------------| 5.--------------------------|

6.----------------------------| 6.--------------------------|





Empezamos con la canción





RIFF 1x4



https://www.coveralia.com/acordes/no-voy-mas-lejos-leno.php

RIFF 2



RIFF 3



RIFF 1x2



G C

Que bien si supieras contener tu agonía FILL 1

G C

fue ayer cuando tu no eras aun quien para amarme FILL 2

G C

da igual no me puedes asustar eres débil FILL 1

G C

se bien que se te mueven los pies cuando canto FILL 2



D C D A D C

Yo solo hago Rock and Roll

D C D A D C

y no voy mas lejos

D C D A D C D C

yo solo hago Rock and roll rock and roll rock and roll





RIFF 1x2



Ya ves ahora solo somos tres que pequeño

vas bien si me quieres convencer yo no llego

dirás al cuarto de información que no existo

se bien que se te mueven los pies cuando canto



Yo solo hago rock and roll

y no voy mas lejos

yo solo hago rock and roll rock and roll rock and roll



RIFF 2



RIFF 3



RIFF 1x2



Se repite el estribillo







Letra subida por: Anónimo

Discos en los que aparece este acorde: Mas Madera , Indirecto

El acorde de No Voy Más Lejos de Leño es una versión de la canción original realizada por colaboradores/usuarios de Coveralia.

¿Has encontrado algún error en esta página? Envíanos tu corrección del acorde