música
Buscador

Acorde de No Voy A Parar - El Canto Del Loco

Letra de No Voy A Parar



Explicación breve: / = Slide (deslice)

p = pull off (desde un traste, arrastrar la cuerda para q suene al soltar)

PM = Palm Muted, apagado de cuerdas con la mano derecha



Los acordes q se utilizan se pueden tocar así:



Emaj7 Dmaj7 Bm7 Bm7 E7 G7 G7

e|--7-- --5-- --7-- --2-- --0-- --3-- --1--

B|--9-- --7-- --7-- --3-- --3-- --3-- --0--

G|--8-- --6-- --7-- ó --2-- --1-- --4-- ó --0--

D|--9-- --7-- --7-- --4-- --2-- --3-- --0--

A|--7-- --5-- --9-- --2-- --2-- --5-- --2--

E|----- ----- --7-- ----- --0-- --3-- --3--



Concretamente, creo q el primer Bm7 lo hace con tónica en 6ª cuerda (la primera forma, en el

traste 7) y el segundo lo hace en 5ª cuerda... pero bueno, pijadas no?



----------------------------------------------------------



3 partes:

----------------------------------------------------------



A) Verso



| Emaj7 | Dmaj7 | Emaj7 | Dmaj7 | Bm7 en 6º | E7 | Bm7 en 5º | G7 | Bm7 | E7 | % | % |



y como soy majo, os lo mastico más aun y os pongo la letra y todo para los que no

entienden bien que lo de la música y todo ese rollo va por compases (buen rollo va):



Emaj7 Dmaj7

Hoy vuelvo, vuelvo a lograr,



Emaj7 Dmaj7 Bm7

que mi tiempo tenga un gran lugar..



Bm7 E7 Bm7 G7

..y seguiré creciendo más, y seguiré tus pasos yo



Bm7 E7 E7

lo que hayamos pasado forma parte de mi cuerpo y mi interior.





B) Estribillo (ya con distorsión)



e|--------------------------------------------------------------------------------------

https://www.coveralia.com/acordes/no-voy-a-parar-el-canto-del-loco.php

B|--------------------------------------------------------------------------------------

G|----------------------------------------------------------2----------------------1----

D|--7/5--5-5--5/7--7-7--7--------7/5--5-5--5/7--7-7--7------3----------------------2---- [x3]

A|--7/5--5-5--5/7--7-7--7--------7/5--5-5--5/7--7-7--7------3----------------------2----

E|--5/3--3-3--3/5--5-5--5--------5/3--3-3--3/5--5-5--5------1----------------------0----

No quiero... No voy a parar.. quiero ver q hay ganas..





C) Solo, Parte Tercera, o Parte en la que David exprime su Gibson SR ¬¬



e|-----------------------------------------------------------------------------------------

B|-----------------------------------------------------------------------------------------

G|-----------------------------------------------------------------------------------------

D|-----------------------------------------------------------------------------------------

A|-x-x---5p0--0--7p0--0--8p0--0--7p0--5p0--7p0--5p0--0--7p0--0--8p0--0--7p0--0--5p0--7p0---

E|-x-x-------------------------------------------------------------------------------------



e|---------------------------------------------------------------------------

B|---------------------------------------------------------------------------

G|---------------------------------------------------------------------------

D|---------------------------------------------------------------------------

A|--5p0--0--7p0--0--8p0--0--7p0--5p0--7p0---5-5-5-5-8-8-8-8------------------

E|----------------------------------------------------------3-3-3-3-6-6-6-6--





La primera vez termina como se indica ----------------------------------

arriba. La segunda vez termina como pone ----------------------------------

aquí al lado. Son sólo un par de quintas, ----------------------------------

y va a ser q lo apaga (palm muted). ----------------------------------

--5--5--5--5--5/8--8--8\----------

--3--3--3--3--3/6--6--6\----------





La estructura de la canción es:



- Verso

- Estribillo (Riff x3)

- Verso

- Estribillo (Riff x3)

- Solo bajo (guitarra mantiene D) y puente de vocalista (q te parece si te digo...)

- Solo guitarra, repitiéndose despues con voz.







Letra subida por: Anónimo

Discos en los que aparece este acorde: Estados De Animo

El acorde de No Voy A Parar de El Canto Del Loco es una versión de la canción original realizada por colaboradores/usuarios de Coveralia.

¿Has encontrado algún error en esta página? Envíanos tu corrección del acorde