música
Buscador

Acorde de No Te Invité A Dormir - Nena Daconte

Letra de No Te Invité A Dormir

INTRO



G F# Em C D G





VERSO



G Em

¿Por qué no te invité a dormir?



C

Sentados en las escaleras



D C

esperando a que dijeras que la vida es mejor en compañía.



Em F#m G

Sentados en una orilla viendo a los demás pasar.







PRE-ESTRIBILLO



Em Bm C

Como yo tampoco dije nada aquella noche,



G C D G

fue la vez que más cerca estuvimos de enredarnos en un beso,



Bm

de mezclarnos bien por dentro.



C G

Aquella noche fue la vez.









ESTRIBILLO



G Bm C

¿Por qué no no no no no te invité no te invité no te invité?



D

¿Por qué no te invité a dormir?



G Bm C

¿Por qué no no no no no te invité no te invité no te invité?



D

¿Por qué no te invité a dormir?





G F#m Em







VERSO



G Em

¿Por qué no te invité a dormir?



C

Sentados en las escaleras



D C

esperando a que dijeras que la vida es mejor en compañía.



Em F#m G

Sentados en una orilla viendo a los demás pasar.









PRE-ESTRIBILLO



Em Bm C

Como yo tampoco dije nada aquella noche,



G C D G

fue la vez que más cerca estuvimos de enredarnos en un beso,



Bm

de mezclarnos bien por dentro.



C G

Aquella noche fue la vez.











ESTRIBILLO



G Bm C

¿Por qué no no no no no te invité no te invité no te invité?



D

https://www.coveralia.com/acordes/no-te-invite-a-dormir-nena-daconte.php

¿Por qué no te invité a dormir?



G Bm C

¿Por qué no no no no no te invité no te invité no te invité?



D

¿Por qué no te invité a dormir?







SOLO





-----------------------------------------------------------------------

-------12----15---------12----15----13-12-13-12-13----12-10----10-12---

-12-14----12------12-14----12-------------------------------12-------12

-----------------------------------------------------------------------

-----------------------------------------------------------------------

-----------------------------------------------------------------------





------------------------------------------------------------------------

----------12-13---15p13-------------------------------------------------

12-14-15----------------12-------14-12-11-----------11-12-14-12-11-14---

------------------------------------------14-12-----------------------12

------------------------------------------------------------------------

------------------------------------------------------------------------





Em Bm

Como tú nunca dijiste nada,



C G

tienes tanto que perder.



C

Se nos fugó la noche



D G Bm

de jugarnos en un beso lo bueno de los momentos.



C G G

Tú ya sabes nunca tuve apenas nada que perder.







ESTRIBILLO X2



G Bm C

¿Por qué no no no no no te invité no te invité no te invité?



D

¿Por qué no te invité a dormir?



G Bm C

¿Por qué no no no no no te invité no te invité no te invité?



D

¿Por qué no te invité a dormir?









###############################



Aquío os deja las tablaturas de las partes que dije antes ;)



PRE-ESTRIBILLO





-------0--------------------------3--

-----0--------0----------------------

---0--------0----------0--------0----

-2--------0----------2---------------

--------2----------3----------2------

----------------------------3--------





----------------------3------------------------3-

-------------3-----------------0-----------------

-----0-----2--------0--------0--------0------0---

---2-----0-----------------0--------2------------

-3----------------2------2--------3--------2-----

----------------3------------------------3-------







ESTRIBILLO



-----------------------------------------------

-----------------------------------------------

------------------44444444-5555555-7--12-11-12-

-55--9-7-5-4-2----44444444-5555555-7-----------

-55---------------22222222-3333333-5--10--9-10-

-33--7-5-3-2-0---------------------------------



Discos en los que aparece este acorde: Una Mosca En El Cristal , , No Te Invite A Dormir (Cd Single)

El acorde de No Te Invité A Dormir de Nena Daconte es una versión de la canción original realizada por colaboradores/usuarios de Coveralia.

¿Has encontrado algún error en esta página? Envíanos tu corrección del acorde