música
Buscador

Acorde de No Te Encuentro - Porter



intro

G------------------------------------------|

D-----------------5------------------------|

A-----6-----6---6-------3-----3---3-5------|

E-8-8---8-8---8-----4-4---4-4---4----------|



esta es la base de la cancion



(hoy ya no estas....)

G------------------------------------------|

D-----------------5------------------------|

A-----6-----6---6-------3-----3---3-5------|

E-8-8---8-8---8-----4-4---4-4---4----------|



(y no te encuentro y no te entiendo..)

G-------------------------------------------------|

D-------------------------------------------------|

A-------------88888-8888-------------88888-8888---|

E-66666-66666------------66666-66666--------------|



(hay no se q paso...)

G------------------------------------------|

D-----------------5------------------------|

A-----6-----6---6-------3-----3---3-5------|

E-8-8---8-8---8-----4-4---4-4---4----------|



(y no te encuentro...)

G-------------------------------------------------|

D-------------------------------------------------|

A---------------88888-8888--------------88888-8888| x1

E-66666-66666--------------66666-66666------------|

https://www.coveralia.com/acordes/no-te-encuentro-porter.php



(voy corriendo solo...)

G-------------------------------------------|

D------------------------------666666666----|

A---------888888888-9999999999--------------| x2

E-6666666-----------------------------------|





G------------------------------------------|

D-----------------5------------------------|

A-----6-----6---6-------3-----3---3-5------|

E-8-8---8-8---8-----4-4---4-4---4----------|



(y no te encuentro)

G-------------------------------------------------|

D-------------------------------------------------|

A---------------88888-8888--------------88888-8888|

E-66666-66666--------------66666-66666------------|



G----------------------------------6-8-6-----------|

D------------------------66666-6-8-------8-6-8-----|

A--------88888888-9999999--------------------------|

E-666666-------------------------------------------|



G-------------------------------------------|

D------------------------------666666666----|

A---------888888888-9999999999--------------|

E-6666666-----------------------------------|





Letra subida por: Anónimo

Discos en los que aparece este acorde: Donde Los Ponys Pastan

El acorde de No Te Encuentro de Porter es una versión de la canción original realizada por colaboradores/usuarios de Coveralia.

¿Has encontrado algún error en esta página? Envíanos tu corrección del acorde