música
Buscador

Acorde de No Se Vende El Rock & Roll - Leño

Letra de No Se Vende El Rock & Roll

...Esto es la intro ... 





--------0--3--0--0-----------0-----------0--------3--0--0--------0--0-----------

0--0h2--------------3--0--2-----3--0--2-----3--0-----------3--0--------3--3-----

--------------------------2-----------2-----------------------------------------

--------------------------2-----------2-----------------------------------------

--------------------------------------------------------------------------------

--------------------------------------------------------------------------------







--------------------------------3--2--0-----2--0--------3--0--0--7--7-----7-----

2--2--0--0-----------2--2--2h3-----------3--------3--0-----------7--7-----7-----

------------2--2--2----------------------------------------------8--8-----8-----

-----------------------------------------------------------------9--9-----9-----

-----------------------------------------------------------------9--9-----9-----

-----------------------------------------------------------------7--7-----7-----







---5--5-----5-------------------------------------------------------------------

---5--5-----5--------3--2--1-----1--2--3----------------------------------------

---6--6-----6-----1--1--1-----1-----1--1--1-------------------------------------

---7--7-----7-----2--2--2--2--2--2--2--2--2-------------------------------------

---7--7-----7-----2--2--2--2--2--2--2--2--2-------------------------------------

---5--5-----5-------------------------------------------------------------------



... Y esto son los acordes



E A

Los hay que no tuvieron que perder

B E

estaba el tren en marcha si señor

E A

los hay que no lo pueden entender

B E

que no se vende el rock and roll

https://www.coveralia.com/acordes/no-se-vende-el-rock-y-roll-leno.php

E A

estais perdiendo el tiempo al intentar

B E

que cause vuestra imagen sensación

E A

estais equivocando al personal

B E

y no se vende el rock and roll





PUNTEILLO CURIOSO



E A

Tenemos una historia por vivir

B E

quiza no sea tan facil la elección

E A

tenemos una cosa que decir

B E

que no se vende el rock and roll



E A

Tenemos una historia y algo que decir

B E

que no se vende nada el rock and roll

E A

Tenemos una historia y algo que decir

B E

que no se vende nada el rock and roll

E A

Tenemos una historia y algo que decir

B E

que no se vende nada el rock and roll

E A

Tenemos una historia y algo que decir

B E

que no se vende nada el rock and roll.

Letra subida por: Anónimo

Discos en los que aparece este acorde: Corre, Corre , Indirecto

El acorde de No Se Vende El Rock & Roll de Leño es una versión de la canción original realizada por colaboradores/usuarios de Coveralia.

¿Has encontrado algún error en esta página? Envíanos tu corrección del acorde