música
Buscador

Acorde de No Se Lo Cuentes - Los Enemigos

Letra de No Se Lo Cuentes

INTRO

-----

guitarra 1

C E F C | C E F F | C E F C | E E



guitarra 2

E|-7/8--7----7--7----8-----|-7/8--7----7--7---------|

B|--------10-------------8-|--------10---------10---|

G|-------------------------|------------------------|

D|-------------------------|------------------------|

A|-------------------------|------------------------|

e|-------------------------|------------------------|



E|-7/8--7----7--7----8-----|------------|

B|--------10-------------8-|--9---------|

G|-------------------------|------------|

D|-------------------------|------------|

A|-------------------------|------------|

e|-------------------------|------------|





VERSO

-----

C E

No me distraigas,

F C E

le estoy haciendo un hijo al mar

C E

no me lo traigas

F C E

yo no quiero saber ná.



PUENTE

------

C E F C

No me tientes más

C E F

con el bien,

C E F C E

siempre tengo sed, ¿por qué?



VERSO

-----

C E

No me molestes,

F C E

ahora quiero engañar al sol.

C E

no me lo cuentes

F C E

si no lo voy a contar yo



PUENTE

------

C E F C

No me tientes más

C E F

con el bien,

https://www.coveralia.com/acordes/no-se-lo-cuentes-los-enemigos.php

C E F C E

siempre tengo sed, ¿por qué?



ESTRIBILLO

----------

C E F C

cuando yo no esté

E F

acuérdate

C E F C

de estar donde yo

E

no esté.

F G# C

y no se lo cuentes a él.





PUNTEO

------

E|-7/8--7----7--7----8-----|-7/8--7----7--7---------|

B|--------10-------------8-|--------10---------10---|

G|-------------------------|------------------------|

D|-------------------------|------------------------|

A|-------------------------|------------------------|

e|-------------------------|------------------------|



E|-7/8--7----7--7----8-----|------------|

B|--------10-------------8-|--9---------|

G|-------------------------|------------|

D|-------------------------|------------|

A|-------------------------|------------|

e|-------------------------|------------|





VERSO

-----

No me entretengas,

el viento ha pujado por mí.

ajusto cuentas

y me largo de aquí.



PUENTE

------

No me tientes más

con el bien,

siempre tengo sed,

¿por qué?



ESTRIBILLO

----------

Cuando yo no esté

acuérdate

de estar donde yo

no esté.

y no se lo cuentes a él.

Y no se lo cuentes a él.

Letra subida por: Anónimo

Discos en los que aparece este acorde: Nada , Obras Escocidas (1985-2000)

El acorde de No Se Lo Cuentes de Los Enemigos es una versión de la canción original realizada por colaboradores/usuarios de Coveralia.

¿Has encontrado algún error en esta página? Envíanos tu corrección del acorde