música
Buscador

Acorde de No Se Fíe - Bunbury

Letra de No Se Fíe

 Intro:



|-7-8------------------------|

|-----9-10-------------------|

|----------9-9h12-12-11-10-9-|

|----------------------------|

|----------------------------|

|----------------------------|(x2)



LAm

No se fíe de una rubia,

REm

que si además se oxigenaba,

|-1-0-------|

|-----3-2-3-|

|-----------|

|-----------|

|-----------|

|-----------|

MI

no le de nunca la espalda



que a la mínima le clava



una estaca así de larga

LAm

y le traspasará el corazón

|-7-7-7-7-7-7-7--7--7--7-7--7--7--7-|

|-9-9-9-9-9-9-9--9--9--9-9--9--9--9-|

|-9-9-9-9-9-9-9--9--9--9-9--9--9--9-|

|-----------------------------------|

|-----------------------------------|

|-----------------------------------|



LAm

No se fíe que es mejor

REm

conservar el esqueleto,

|-1-0-------|

|-----3-2-3-|

|-----------|

|-----------|

|-----------|

|-----------|

MI

aunque sea bien escueto,



si una noche es expuesto,



dese por muerto, |-7-7-7-7-7-7-7--7--7--7-7--7--7--7-|

|-9-9-9-9-9-9-9--9--9--9-9--9--9--9-|

|-9-9-9-9-9-9-9--9--9--9-9--9--9--9-|

|-----------------------------------|

|-----------------------------------|

|-----------------------------------|



vaya diciendo

LAm

el último adiós.







REm

No se fíe de una dama

LAm

que le rechaza una grapa;

MI

será soberbia y chulata,

LAm

fresarpía ideata;

MI

una persona non grata



https://www.coveralia.com/acordes/no-se-fie-bunbury.php

a la que falta un hervor.



(Solo)

LAm...

~~~~~~~

|-------------------|--------------------------|--------|

|-------------------|------------9h10-12-12-12-|-9-10-9-|

|-8-9-8-------------|--------7-9---------------|--------|

|-------10-10p9-7-9-|-7-9-10-------------------|--------|

|-------------------|--------------------------|--------|

|-------------------|--------------------------|--------|

~~~~~~~~~~~

|-------|--------|--------|-----------|

|-7-8-7-|--------|--------|-----------|

|-------|-9-10-9-|--------|-----------|

|-------|--------|-9-10-9-|-----------|

|-------|--------|--------|-11-12-8-7-|

|-------|--------|--------|-----------|



LAm

No se fíe de una baby,

REm

pelirroja, peligrosa; |-1-0-------|

|-----3-2-3-|

|-----------|

|-----------|

|-----------|

|-----------|



estratega la sombra,



dura como la roca,



puede cantar derrota |-7-7-7-7-7-7-7--7--7--7-7--7--7--7-|

|-9-9-9-9-9-9-9--9--9--9-9--9--9--9-|

|-9-9-9-9-9-9-9--9--9--9-9--9--9--9-|

|-----------------------------------|

|-----------------------------------|

|-----------------------------------|

LAm

que noooooooo se deja querer.









|---------------|

|---------------|

|---------------|

|-6-6-7-9-7-6-7-|

|---------------|

|---------------|

REm

No se fíe de una abuela,

LAm

tampoco de una mulata,

MI

ni de una negra o asiática,

LAm

será señora o muchacha;

MI

si son personas non gratas



que no entienden de amor.



(Solo)



|-7-|-8---|----------|------------------------|

|---|---9-|-7-9-10---|------------------------|

|---|-----|--------9-|-9h10-12-11-10-10h12p10-|

|---|-----|----------|------------------------|

|---|-----|----------|------------------------|

|---|-----|----------|------------------------|

Discos en los que aparece este acorde: Flamingos

El acorde de No Se Fíe de Bunbury es una versión de la canción original realizada por colaboradores/usuarios de Coveralia.

¿Has encontrado algún error en esta página? Envíanos tu corrección del acorde