música
Buscador

Acorde de No Necesitamos Banderas - Los Prisioneros

Letra de No Necesitamos Banderas

(el Do6 lo puedes hacer de 2

formas igual que el mi7)



Lam Rem Sol Do Mi Do6 Do

E----5----5----5----3----7----0---------0--------

B----5----6----5----5----9----1---------0--------

G----5----7----4----5----9----2----5----0----9---

D----7----7----5----5----9----2----5----0----9---

A----7----5----5----3----7----3----3----2----7---

E----5----X----3----X----X----0---------0--------





Lam Rem

Con la autoridad que nos da el buen juicio

Lam Rem

y en pleno uso de nuestra razón

Lam Rem

declaramos romper de forma oficial

Lam

los lazos que nos pudieron atar alguna vez

Sol Do

a una sola institución o forma de representación

Rem Mi

que nos declare parte de su total





Lam Rem

con todo honestidad y con la mente limpia

Lam Rem

renegamos de cualquier color

Lam Rem

ya todas las divisas nos dan indiferencias

Lam Rem

renegamos de cualquier patrón

Sol Do

se llame religión, se llame nacionalidad

Rem Mi

no queremos representatividad



Coro:

Lam Do6 Mim7



Rem

no necesitamos banderas

Rem Lam Do6 Mim7

no reconocemos fronteras

Rem Lam Do6 Mim7

no aceptaremos filiaciones

Rem Lam Do6 Mim7

no escucharemos mas sermones





Es fácil vegetar, dejar que otros hablen

Y decir, ellos saben más que yo.

Ponerse una insignia, marchar detrás de un líder

https://www.coveralia.com/acordes/no-necesitamos-banderas-los-prisioneros.php

Y dejar que nos esgriman como razón

No vamos a esperar, la idea nunca nos gustó

Ellos no están haciendo lo que al comienzo se pactó.





Coro:

No necesitamos banderas

No reconocemos fronteras

No aceptaremos filiaciones

No escucharemos más sermones! Nonono noooo...





Solo:



E-------------------------------------------------

B-------------------------------------------------

G---9----9----9-----------------------------------

D----10---10---10--10--12--14--12--14h15-14-12----

A------12--12---12--------------------------------

E-------------------------------------------------



E--------------------------------------------------

B--------------------------------------------------

G---9----9----9------------------------------------

D----10---10---10---10-12h14-12-14-15-14-12--------

A-----12---12---12--------------------------15-14--

E--------------------------------------------------



E-----------------------------------------------------

B-----------------------------------------------------

G-----------------------------------------------------

D------------------14-12-14-14-15-14-12--------12-14--

A---15-14-14-15-14----------------------15-14---------

E-----------------------------------------------------



E--------------------------------------------------------

B--------------------------------------------------------

G--------------------------------------------------------

D---15-14-12--15-14-12--15-14-12--15-14-12--14-15-17-----

A--------------------------------------------------------

E--------------------------------------------------------



E-------------------------------------

B-------------------------------------

G---13^^-------14h15-14---------------

D------14---14----------14----14------

A---------14---------------14---------

E-------------------------------------





No necesitamos banderas

No reconocemos fronteras

No aceptaremos filiaciones

No escucharemos más sermones

El acorde de No Necesitamos Banderas de Los Prisioneros es una versión de la canción original realizada por colaboradores/usuarios de Coveralia.

¿Has encontrado algún error en esta página? Envíanos tu corrección del acorde