música
Buscador

Acorde de No More Losing The War - Half Moon Run

Letra de No More Losing The War



Tuning: Standard





VERSE

Fm C/G

e|--------------------| e|--------------------|

B|--------------------| B|--------------------|

G|---1--1--1--1--1--1-| G|---0--0--0--0--0--0-|

D|--3--3--3--3--3--3--| D|--2--2--2--2--2--2--|

A|----3--3-----3--3---| A|----3--3-----3------|

E|-1--------1---------| E|-3--------3-----3---|







CHORUS

Dbmaj7 Ab Cm

e|--------------------| e|--------------------| e|--------------------|

B|------6--------6----| B|------4-------------| B|------4-------------|

G|---5-----5--5-----5-| G|---5-----5----------| G|---5-----5----------|

D|--6--6--6--6--6--6--| D|--6--6--6-----------| D|--5--5--5-----------|

A|-4--4--4--4--4--4---| A|-6--6--6------------| A|-6--6--6------------|

E|--------------------| E|--------------------| E|--------------------|



Fm C/G

e|--------------------| e|--------------------|

B|------1--------1----| B|------1--------1----|

G|---1-----1--1-----1-| G|---0-----0--0-----0-|

D|--3--3--3--3--3--3--| D|--2--2--2--2--2--2--|

A|----3--3-----3------| A|----3--3-----3------|

E|-1--------1-----1---| E|-3--------3-----3---|







BRIDGE

Bbm Db6 C

e|------1--------1----| e|--------------------| e|--------------------|

B|---2-----2--2-----2-| B|------2--------2----| B|------1--------1----|

G|--3--3--3--3--3--3--| G|---3-----3--3-----0-| G|---0-----0--0-----0-|

D|--------------------| D|--3--3--3--3--3--3--| D|--2--2--2--2--2--2--|

A|-1--1--1--1--1--1---| A|-4--4--4--4--4--4---| A|-3--3--3--3--3--3---|

E|--------------------| E|--------------------| E|--------------------|

Fsus2 Cm

e|--------------------| e|--------------------|

B|------1-------------| B|------4-------------|

G|---0-----0----------| G|---5-----5----------|

D|--3--3--3-----------| D|--5--5--5-----------|

A|--------------------| A|-6--6--6------------|

E|-1--1--1------------| E|--------------------|





VERSE

Fm C/G Fm C/G



Fm

somebody stop her

C/G

the lifter



the runner

Fm C/G

the girl with the gold in her mouth





Fm

they caught her at london

C/G

waterloo station

Fm C/G

https://www.coveralia.com/acordes/no-more-losing-the-war-half-moon-run.php
strung up on a ferris wheel



Fm C/G Fm C/G



Fm

she used to lose pageants

C/G

"pick of the litter"

Fm C/G

the newspapers screamed from their racks

Fm C/G

pictures at seven, nine-teen eighty-somethin

Fm C/G

the waltz on her father's shoes





CHORUS

Dbmaj7 Ab Cm Fm C/G

no more losing the war, karen

Dbmaj7 Ab Cm Fm C/G

no more losing the war, karen





VERSE

Fm C/G Fm C/G



Fm

but i really knew her

C/G

in an after-pub-closing way

Fm C/G Fm C/G

falling down, crawling drunk laughing like children with sugared up gullets

Fm C/G

i rue this day





CHORUS

Dbmaj7 Ab Cm Fm C/G

no more losing the war, karen



oh karen..





Dbmaj7 Ab Cm

no more losing the war





BRIDGE

Bbm Db6

you got me all frustrated

C Fsus2 Cm

in an old fashioned way





Bbm Db6

easy does it rider

C Fm C/G Fm C/G

i've had a long, long day





CHORUS

Dbmaj7 Ab Cm Fm C/G

no more losing the war, karen

Dbmaj7 Ab Cm Fm C

no more losing the war, karen





Letra subida por: Anónimo

Discos en los que aparece este acorde: Dark Eyes

El acorde de No More Losing The War de Half Moon Run es una versión de la canción original realizada por colaboradores/usuarios de Coveralia.

¿Has encontrado algún error en esta página? Envíanos tu corrección del acorde