música
Buscador

Acorde de No More Lies - Iron Maiden

Letra de No More Lies

 Intro:   

E|------------------------------------------------------------------| |

B|------------------------------------------------------------------| |

G|------9--7--9~---7--9--7--9--9~--7--9--7--9--9~-------------------| |

D|--7---------------------------------------------------------------| |

A|------------------------------------------------------------------| | 2

E|------------------------------------------------------------------| |

|

E|------------------------------------------------------------------| |

B|-------------8----------------------------------------------------| |

G|--7--9--10------10--9~--7--9--7~---5--5~--4--5--4--5--5~----------| | V

D|------------------------------------------------------------------| |

A|------------------------------------------------------------------| | E

E|------------------------------------------------------------------| |

| Z

E|------------------------------------------------------------------| |

B|------------------------------------------------------------------| | E

G|--4--5--4-----------------------------7~--------------------------| |

D|--------------7--7--5--7--5--7--5---------------------------------| | S

A|------------------------------------------------------------------| |

E|------------------------------------------------------------------| |





E|------------------------------------------------------------------|

B|------------------------------------------------------------------|

G|------9--9--9--9--7--9~------9--9--9--9--10--9--7--9~-------------|

D|--7----------------------7----------------------------------------|

A|------------------------------------------------------------------|

E|------------------------------------------------------------------|

4 VEZES





E|------------------------------------------------------------------|

B|-------12--13-------12--13--------12--13--15--13--12--13--12------|

G|--14-----------14-----------14--------------------------------12--|

D|------------------------------------------------------------------|

A|------------------------------------------------------------------|

E|------------------------------------------------------------------|

4 VEZES







Am F

There's a darkened sky before me

Dm G

There's no time to prepare

Am F

Salvage a last horizon

Dm G

But no regrets from me





Am F

Maybe I'll be back some other day

Dm G

To live again just who can say

Am F

In what shape or form that I might be

Dm G

Just another chance for me



Am Dm

A hurried time no disgrace

C G

Instead of racing to conclusion

Am Dm

And wishing all my life away

C G

No-one can stop me now



Am Dm

Time is up it couldnt last

C G

But there's more things I'd like to do

Am Dm

I'm coming back to try again

C G

Someday maybe I'll wait till then



Am

No more lies

F

No more lies

https://www.coveralia.com/acordes/no-more-lies-iron-maiden.php

G 2x

No more lies

Dm

No more lies



Am F

They're all sitting at my table

Dm G

Talking tall and drinking wine

Am F

Their time is up just like me

Dm G

But they just dont know it yet





Am F

So just a word of warning

Dm G

When you're in your deepest dream

Am F

There's nothing you can hide from

Dm G

I've got my eye on you





Am Dm

The clock is fast the hour is near

C G

Eventful past is everclear

Am Dm

My life is set the time is here

C G

I think I'm coming home



Am

No more lies

F

No more lies

G 2x

No more lies

Dm

No more lies



Intro...



Solo: (Am Am F G / Am Am Dm G) 2x (Am Am F G) 8x



Am Dm

A hurried time no disgrace

C G

Instead of racing to conclusion

Am Dm

And wishing all your life away

C G

No-one can stop me now



Am Dm

Time is up it couldnt last

C G

But there's more things I'd have to do

Am Dm

I'm coming back to try again

C G

Don't tell me that this is the end





Am

No more lies

F

No more lies

G 2x

No more lies

Dm

No more lies



Am F

No more lieeeeeeess

G Dm

No more lieeeeeeess





Letra subida por: Anónimo

El acorde de No More Lies de Iron Maiden es una versión de la canción original realizada por colaboradores/usuarios de Coveralia.

¿Has encontrado algún error en esta página? Envíanos tu corrección del acorde