música
Buscador

Acorde de No Hay Perdón - Delito Y Medio

ACORDES DE LA CANCIÓN:
    C5  G5  A5  F5  D5  E5' F5'
D|--5---5---7---3---7---9---10-|
A|--3---5---7---3---5---7---8--|
E|--3---3---5---1---5---7---8--|


Punteo 1:
e|----------------------------------->
B|------5---5~4-5-5------------------>
G|--5-5---5--------------4---4~5-4-5->
D|-------------------5-5---5--------->
A|----------------------------------->
E|----------------------------------->

>----------------------------------------|
>------------------8-6-5---5~6~5---------|
>-----5---5~7-5-5--------7-------7-7-*5*-|
>-7-7---7--------------------------------|
>----------------------------------------|
>----------------------------------------|
*5* Solo la segunda vez


Punteo 2:
e|--8-8-10--8-8-10--8-8-10----------------------|
B|----------------------------8-6-5---5~6~5-----|
G|----------------------------------7-------7-7-|
D|----------------------------------------------|
A|----------------------------------------------|
E|----------------------------------------------|


Punteo 3:
e|------------------------------------------------>
B|--------------------8--------------------------->
G|--9--10-9-7~9~7-7-9---10-9~10~9--------7----7-9->
D|--------------------------------10--10---10----->
A|------------------------------------------------>
E|------------------------------------------------>

>--------------------------------------->
>--------------------------------------->
>-9----------------9------------------9->
>---12-10-12-10-12----12--10-12-10-12--->
>--------------------------------------->
>--------------------------------------->

>--------12-10------------------------------10---->
>--10-12-------13-12--13-12-10-----10-12-13----13->
>-------------------------------12---------------->
>------------------------------------------------->
>------------------------------------------------->
>------------------------------------------------->

>--17-15----------15------------------------------>
>--------17-16-17----17-16-17-16-14--------------->
>-----------------------------------15-16-15-16--->
>------------------------------------------------->
>------------------------------------------------->
>------------------------------------------------->

>--15-13-12-10-13-12-10----------15-13-12-10-13-12-10->
>-----------------------13-12-13---------------------->
>----------------------------------------------------->
>----------------------------------------------------->
>----------------------------------------------------->
>----------------------------------------------------->

>----------10-12-13-17-15-13-12-13-12---------->
>-13-12-13------------------------------------->
>---------------------------------------------->
>---------------------------------------------->
>---------------------------------------------->
>---------------------------------------------->

>----------------------------------12-------13-12----|
>--13-12----13-12--13-12----13-12-----13----------13-|
>--------12--------------12--------------12----------|
>----------------------------------------------------|
>----------------------------------------------------|
>----------------------------------------------------|

Punteo 4:
e|------------------------------------------->
B|----13----15----13----------13----15----13->
G|-12----12----12----12-12-12----12----12---->
D|------------------------------------------->
A|------------------------------------------->
E|------------------------------------------->

>-----------------------------15-13-12----12~13~12-----------|
>----------13----15----13--------------15----------15-15-----|
>-12-12-12----12----12----12-----------------------------*13*|
>------------------------------------------------------------|
>------------------------------------------------------------|
>------------------------------------------------------------|
*13* Solo la segunda vez


Punteo 1
Punteo 1 + C5 G5 A5 F5


C5               G5
Se me erizan los pelos
A5                F5
cuando te veo por la carretera,
C5                 G5
tú que fuiste tan fiel
A5               F5
abandonao en una gasolinera.


C5             G5
El regalo del niño
A5                     F5
lo echan los reyes si trae buenas notas.
C5              G5
Ay mirale qué bonito
A5              F5
da la patita y trae la pelota.


C5                G5
Cómo juega y cómo salta
A5                  F5
da alegría verle correr
C5                    G5
pero a ver qué coño hacemos (Cómo juega y cómo salta)
A5             F5
si en verano vamos de hotel.


Estrofa con el punteo 2 (x2)
C5     G5              A5   F5
Cómo podéis ser tan irresponsables
C5            G5             F5
teníais que haberlo pensado antes.
C5       G5          A5         F5
Jugando con la muerte de un ser vivo
C5       G5              F5
y encima no os sentís culpables. ¡Me cago en dios!


Punteo 1 + C5 G5 A5 F5 (x2)


(Solo bajo y batería)
Se me encojen los huevos al ver
tu cadáver en la carretera
tú que fuiste tan fiel
desparramao en una cuneta.


C5                    G5
Qué disgusto tiene el niño
A5               F5
en navidad compraremos un gato
C5                 G5
cuando llegue el verano
A5               F5
ya sabemos donde hay que dejarlo.


C5               G5
Así sigue la historia (Cómo juega, cómo salta)
A5              F5
lo siguiente no será una rata
C5                   G5
porque el niño date cuenta (Cómo juega, cómo salta)
A5              F5
que la rata la tiene ya en casa.


Estrofa con el punteo 2 (x2)
C5           G5          A5       F5
Te da igual lo que el animal sintiera
C5      G5       F5
en eso nunca reparaste
C5         G5             A5    F5
que por seguirte y querer encontrarte
C5           G5          F5
se lo ha llevado por delante un camión.

C5 G5 A5 F5 (x4)
Mientras el punteo 3


Estrofa con el punteo 2 (x2)
C5     G5              A5   F5
Cómo podéis ser tan irresponsables
C5            G5             F5
teníais que haberlo pensado antes.
C5       G5          A5         F5
Jugando con la muerte de un ser vivo
C5       G5              F5
y encima no os sentís culpables.


C5           G5          A5       F5
Te da igual lo que el animal sintiera
C5      G5       F5
en eso nunca reparaste,

Estrofa con el punteo 2
C5         G5             A5    F5
que por seguirte y querer encontrarte
C5           G5          F5
se lo han llevado por delante. ¡Cabrón!

C5 G5 A5 F5 (x2)
      ó
D5-C5, D5, D5-D5-D5, D5-C5, D5, F5', E5', D5 (X2)


C5            G5
El regalo del niño
A5                       F5
lo echan los reyes sin trae buenas notas.
C5              G5
Ay mirale qué bonito
A5             F5
da la patita y trae la pelota.


Punteo 1 (x2) mientras:
C5      G5       A5
Ohohohhhhhhhhhhhhhhh
F5
No hay perdón para el que abandona.
C5      G5       A5
Ohohohhhhhhhhhhhhhhh
F5
¡No hay perdón!


Punteo 4 (x2)
C5           G5          A5       F5
Te da igual lo que el animal sintiera
C5      G5       F5
en eso nunca reparaste
C5         G5             A5    F5
que por seguirte y querer encontrarte
C5           G5          F5            C5           C5
se lo han llevado por delante. ¡Cabrón! ¡Hijo puta!


Letra subida por: Anónimo

Discos en los que aparece este acorde: Sin Fronteras

El acorde de No Hay Perdón de Delito Y Medio es una versión de la canción original realizada por colaboradores/usuarios de Coveralia.

¿Has encontrado algún error en esta página? Envíanos tu corrección del acorde