música
Buscador

Acorde de No Es Lo Mismo - La Kinky Beat

Letra de No Es Lo Mismo

Intro en Dm



Dm Gm

No es lo mismo reír que llorar

A Dm

No es lo mismo subir que bajar

Gm A Dm

No es lo mismo decir que me quieres

Gm A Dm A Dm

No es lo mismo no quiero verte mas



No es lo mismo decir si o no

No es lo mismo el pueblo que el patrón

No es lo mismo vivir liberao

No es lo mismo morir condenao



Dm Gm

En el filón del último escalón

A Dm

Tropezara y caerá como un cabron x2

En el filón de la última verdad

Seremos libres vendrá la libertad



-------------------------------------------------------------

-------------------------------------------------------6-8-10

7-7-9-10--10-10-9-7-6-------------6-6-7-9--9-9-7-6-7-9-------

-------------------------------------------------------------

-------------------------------------------------------------

-------------------------------------------------------------



https://www.coveralia.com/acordes/no-es-lo-mismo-la-kinky-beat.php

-------------------------------------------------------------

--------------------8-------------8-10-11-10-8---------------

7-7-9-10--10-10-9-7----------------------------10-9-7--------

-------------------------------------------------------------

-------------------------------------------------------------

-------------------------------------------------------------



Dm

Sigo pensando en ti

Gm

Da lo mismo que pienses tu de mi

Gm A Dm

No es lo mismo que vivas tu vida

Gm A Dm

No es lo mismo mi vida sin ti



Estamos aquí

Nos da lo mismo bajar que subir

Somos de aquí somos de allá

Gm A Dm A Dm

No hay muros ni balas que nos puedan parar



En el filón del último escalón? x2



Seremos libres vendrá la libertad

Gm A Dm A Dm

Seremos libres vendrá la libertad





Letra subida por: Anónimo

Discos en los que aparece este acorde: Made In Barna , Rmx Made In Barna

El acorde de No Es Lo Mismo de La Kinky Beat es una versión de la canción original realizada por colaboradores/usuarios de Coveralia.

¿Has encontrado algún error en esta página? Envíanos tu corrección del acorde