música
Buscador

Acorde de No Despertaré - Sergio Dalma

Letra de No Despertaré

Capo en el tercer traste



Intro (solo)



e|-0---0-1-1s3-1-1-0---0-1-1s3-1-1-0---0------------------------1-3--||

B|-1----------------1----------------1--3-1-0-0-1-1s3-1-----1-3------||

G|-0---------------------------------2-------0----------0-2----------||

D|-2---------------------------------2-------------------------------||

A|-3---------------------------------0-------------------------------||

E|-3-----------------------------------------------------------------||



C Am

La noche que esconde

Em G

carmín en tus huellas

C

durmiendo en tu cama

Am

devoro mis penas

Em

que pesan por ti

Dm F

No despertaré

G

hasta que logre ser tuyo

C

Me refugio en tus sueños

Am

me escondo en tu pelo

Em

me quiero morir

Dm F

muy cerca de ti

G

pero muy dentro de ti



C-C-Am-G

C Am

La luna que entiende

Em G

de corazones sinceros

C

durmiendo en tus pechos

Am

descubro los celos

Em

que siento por ti

Dm F

No despertaré

G

hasta que logre ser tuyo





C

No sentiré jamás la soledad

https://www.coveralia.com/acordes/no-despertare-sergio-dalma.php

Am

me vas a consentir

Em

que te ame una vez más

Dm

tu cuerpo romperá mi timidez

F C G

para desafiar la razón

C

No pensaré en otra realidad

Am

me dejas conseguir

Em

poder desesperar

Dm

tu cuerpo romperá mi timidez

F C G

para desafiar la razón





C Am

Otra noche que esconde

Em G

nuestros besos secretos

C

sigo durmiendo en tu cama

Am

devorando mis penas

Em

que pesan por ti

Dm F

No despertaré

G

hasta que logre ser tuyo



Coro x2



Al final del coro se agrega esto:

Dm

...tu cuerpo romperá mi timidez

F C Am

para desafiar la razón... (Fig.1)

C G

la razón.



Fig. 1



E|-----------

B|-----------

G|-----------

D|-----------

A|-3-2-0-----

E|-----------:)

Letra subida por: Anónimo

El acorde de No Despertaré de Sergio Dalma es una versión de la canción original realizada por colaboradores/usuarios de Coveralia.

¿Has encontrado algún error en esta página? Envíanos tu corrección del acorde