música
Buscador

Acorde de No Amanece En Bouzas - Los Enemigos

Letra de No Amanece En Bouzas



Riff:

MI

e|---------------------|

B|---------------------|

G|*-9-------9---------*|

D|*-9-x-x---9--x-x-x--*|

A|--7-x-x---7--x-x-x---|

E|----0-0------0-0-0---|



Intro: Riff x12



Riff x3

Se volviera tu gato

SolLa

se volviera fiera.

|-----|

|-----|

|---2-|

|---2-|

|-2-0-|

|-3---|

Riff x3

Me dijera 'Te mato'

SolLa

y luego me comiera.



Riff x4



Riff x3

Se volviera tu culo

SolLa

se volviera fiera.

Riff x3

Se volviera peludo

SolLa

y luego me engullera.



MI RE LA x2

e|--12-----10-------------------------|

B|--12-----10-------------------------|

G|*-13-----11------2-----------------*|

D|*-14-----12------2--------2h3h4--2-*|

A|--14-----12------0--2h3h4-----------|

E|--12-12--10-10----------------------|

^ ^ ^

Riff x3

Se volviera la radio

SolLa

se volviera fiera.

Riff x3

Grande como un estadio

SolLa

y luego me engullera.



MI RE LA

e|--12-----10-------------------------|

B|--12-----10-------------------------|

G|*-13-----11------2-----------------*|

D|*-14-----12------2--------2h3h4--2-*|

A|--14-----12------0--2h3h4-----------|

E|--12-12--10-10----------------------|

^ ^ ^

MI RE LA

e|-12------10-----------|

B|-12------10-----------|

G|-13------11------2----|

D|-14------12------2----|

A|-14------12------0----|

E|-12-12---10-10--------|

^ ^ ^

MI7 RE7 LA SI SolLa

e|-----------------------------------------------|------------|

B|-----------------------------------------------|------------|

G|-9--x-9-x-9--7--x-7-x-7------------------------|----------2-|

D|-9--x-9-x-9--7--x-7-x-7--7--x-7-x-7--9-9-9-9-9-|-9-9-9----2-|

A|-7--x-7-x-7--5--x-5-x-5--7--x-7-x-7--9-9-9-9-9-|-9-9-9--2-0-|

E|-------------------------5--x-5-x-5--7-7-7-7-7-|-7-7-7--3---|

| MI RE LA SI SolLa

e|-----------------------------------------------|------------|

https://www.coveralia.com/acordes/no-amanece-en-bouzas-los-enemigos.php

B|-9---------9--7-------7--2-------2-------------|------------|

G|-9---------9--7-------7--2-------2---4-4-4-4-4-|-4-4-4----2-|

D|-9---------9--7-------7--2-------2---4-4-4-4-4-|-4-4-4----2-|

A|---9h10h11------7h8h9------2h3h4-----2-2-2-2-2-|-2-2-2--2-0-|

E|-----------------------------------------------|--------3---|

¿No amanece en Bouzas? ¿No amanece nunca? (¿Ni para Dios?)

¿No amanece en Bouzas?

¿No amanece nunca?

SolLa

¿Ni para Dios?



Riff x2



Solo:

e|---------------------------------------------------------

B|-------------------------------9--------9--9-9-------9---

G|--------7-9b-7--------7-9b-7---9--------9--9-9-------9---

D|--7h8h9---------7h8h9----------9--------9--9-9-------9---

A|--------------------------------9h10h11-------9h10h11----

E|---------------------------------------------------------



----------------------------------------------------------

-------------------------------9--------9--9-9-------9----

-------7-9b-7--------7-9b-7----9--------9--9-9-------9----

-7h8h9---------7h8h9-----------9--------9--9-9-------9----

--------------------------------9h10h11-------9h10h11-----

----------------------------------------------------------



---------------------------------------------------------------------

------------------------------10-------------------------------------

-------7-9b-7---------7-9b-7---9-7-----------7-9b-7----------9-11b-9-

-7h8h9---------7h8h9-------------7---7h8h9-----------9h10h11---------

---------------------------------------------------------------------

---------------------------------------------------------------------



---12-12-12-12-12-12-12-12---------|

---12-12-12-12-12-12-12-12---------|

------------------14-15-16------7--|

--------------------------------6--|

----------------------------5-6-7--|

-----------------------------------|



Riff x4



Riff x3

Se volviera tu padre

SolLa

se volviera fiera.

Riff x3

Me montara aquelarre

SolLa

y luego me engullera.



MI RE LA x2

e|--12-----10-------------------------|

B|--12-----10-------------------------|

G|*-13-----11------2-----------------*|

D|*-14-----12------2--------2h3h4--2-*|

A|--14-----12------0--2h3h4-----------|

E|--12-12--10-10----------------------|

^ ^ ^



¿No amanece en Bouzas?

¿No amanece nunca?

¿No amanece en Bouzas?

¿No amanece nunca?

¿No amanece en Bouzas?

¿No amanece nunca?

¿No amanece en Bouzas?

¿No amanece nunca?

¿Ni para Dios?



RE MI

e|-------|

B|-------|

G|-7-s-9-|

D|-7-s-9-|

A|-5-s-7-|

E|-------|

Letra subida por: Anónimo

Discos en los que aparece este acorde: Obras Escocidas (1985-2000)

El acorde de No Amanece En Bouzas de Los Enemigos es una versión de la canción original realizada por colaboradores/usuarios de Coveralia.

¿Has encontrado algún error en esta página? Envíanos tu corrección del acorde