música
Buscador

Acorde de Niña - Pedro Guerra

Letra de Niña

INTRO

Am B7 A C C# Dm

--------0----------2--7--5--3--3---3--4--5----5--5----7/8/7----------

--------1--1--1--4----7--5--3--3---3--4--5----5--5----------10-8-7---

------0-2--2-------------------------------------------------------9-

--2-4---2-2----------------------------------------------------------

--------0--------2----------3-3----3--4--5--5----5----0--------------

----------------------7--5-------------------------------------------



B7 E

-----2--------2----------0-------0-------0------0-0---0-

--4----4--------4--------0-------0-------0------0-0---0-

---------2--------2------1-------1-------1------1-1---1-

--------------------------------------------------------

--2---------2----------------2-2----------------2-2---2-

----------------------0----------------0----------------







Am B7 C B7 F#m7-5

Quizá te busquen Porque naciste



B7 E

Quizá te midan por mujer.



Am B7 C B7 F#m7-5

Quizá te acosen Porque creciste



B7 E

Quizá te odien por mujer.







CORO

C - B7 Am - D

Pero no dejes de ser la niña



F#m7-5 - B7 E

Que abraza todo lo que hay en sí.



C - B7 Am - D

https://www.coveralia.com/acordes/nina-pedro-guerra.php

Pero no dejes de ver el mundo



F#m7-5 - B7 E INTRO

Como un espacio por compartir.









Am B7 C B7 F#m7-5

Quizá te insulten Quizá no nazcas



B7 E

Quizá te anulen por mujer.



Am B7 C B7 F#m7-5

Quizá no llegues a ser tú misma



B7 E

Quizá te empujen por mujer.







CORO

C - B7 Am - D

Pero no dejes de ser la niña



F#m7-5 - B7 E

Que abraza todo lo que hay en sí.



C - B7 Am - D

Pero no dejes de ver el mundo



F#m7-5 - B7 E

Como un espacio por compartir. BIS CORO



INTRO 2 veces y fin.







Letra subida por: Anónimo

Discos en los que aparece este acorde: Hijas De Eva

El acorde de Niña de Pedro Guerra es una versión de la canción original realizada por colaboradores/usuarios de Coveralia.

¿Has encontrado algún error en esta página? Envíanos tu corrección del acorde