música
Buscador

Acorde de Nightclub - Balthazar

Letra de Nightclub



RYTHM GUITAR





Chords :



F#m D A Bm

e|---2-----2-----0-----2---|

B|---2-----3-----2-----3---|

G|---2-----2-----2-----4---|

D|---4-----0-----2-----4---|

A|---4-----------0-----2---|

E|---2---------------------|





[Intro]

A

F#m D A (x2)





[Verse]

F#m D A

Crippled by this raw desire

F#m D A

I keep on reaching high and higher

F#m D

And now the stars replaced the sun

A

And there's a woman's face

F#m

In each and everyone

D A

And it's all so blinding





[Chorus]

F#m A

A little goes a long way

D Bm

A lot of it a long way further

F#m A

A little goes a long way

D Bm

A lot of it a long way further





[Verse]

F#m D A

At first it just affects your skin

F#m D A

But then it takes you over from within

F#m D

It shines out through your eyes

A

It starts to shine out past the drought

F#m

Inside of your mouth

D A

And it's all so blinding





[Chorus]

F#m A

A little goes a long way

D Bm

A lot of it a long way further

F#m A

A little goes a long way

D Bm

A lot of it a long way further





[Bridge]

A F#m A D Bm

So I'm not going home Babe

F#m A D Bm

https://www.coveralia.com/acordes/nightclub-balthazar.php

Why should I





[Chorus]

F#m A

A little goes a long way

D Bm

A lot of it a long way further

F#m A

A little goes a long way

D Bm

A lot of it a long way further





[Outro]

F#m A D Bm (x2)

F#m



LEAD GUITAR





[Intro]



A

e|-------------------------------------|

B|-------------------------------------|

G|-------------------------------------|

D|-------------------------------------|

A|-------4-------4-------4-------4-----|

E|---5-----5-5-----5---5---5-5-5---5---|



F#m D A

e|-----------------------------------------------------------------------|

B|-----------------------------------------------------------------------|

G|-----------------------------------------------------------------------|

D|-----------------------------------------------------------------------| x2

A|------------------------9-------9--------4-------4-------4-------4-----|

E|---2---5-2-2---5/10--10---10-10---10-5-----5-5-----5---5---5-5-----5---|





[Verse]



F#m D A

e|-----------------------------------------------------------------------|

B|-----------------------------------------------------------------------|

G|-----------------------------------------------------------------------|

D|-----------------------4-------4---------------------------------------|

A|-----------------5---5---5-5-----5-----4-------4-------4-------4-------|

E|---2---5-2-2---5-------------------5-----5-5-----5---5---5-5-----5-----|





[Bridge (violin part)]



F#m A D Bm

e|-----------------------------------------------------------------------|

B|---1---2---/9---7---2------------1---2---/9---7---2--------------------|

G|----------------------------------------------------4-2----------------|

D|-----------------------------------------------------------------------|

A|-----------------------------------------------------------------------|

E|-----------------------------------------------------------------------|





[Outro]



F#m

e|-------------------------------------|

B|-------------------------------------|

G|-------------------------------------|

D|-------------------------------------|

A|-------------------------------------|

E|---2---5-2-2---5-2---2-5-2-2-2-5-2-2-|







Letra subida por: Anónimo

Discos en los que aparece este acorde: Thin Walls

El acorde de Nightclub de Balthazar es una versión de la canción original realizada por colaboradores/usuarios de Coveralia.

¿Has encontrado algún error en esta página? Envíanos tu corrección del acorde