música
Buscador

Acorde de Negativo - Bunbury

Letra de Negativo



Bm

Ha pasado el tiempo

tengo casa al otro lado del mar

pero algunos momentos

seran dificil de olvidar

Bm

La estacion del silencio

junto algun que otro bar

la ruta de los suenos

que parece imposible de alcanzar



AREGLOS DE VIOLINES:

e---------------------------------------------------------

b---------------------------------------------------------

g--11----------------9/10-10-11---------------9/10-10-11--

D------10/11----13---------------10/11----13--------------

A---------------------------------------------------------

E---------------------------------------------------------



Bm D Em G

no,no,no, negativo,no,no,no, definitivo

Bm D

no,no,no, negativo,

Em G

no,no,no, decididamente

Bm

decisivamente, definitivamente no

Bm

Las noches desvelado

drogas consumidas

las mujeres que me acompanaron

Bm

Asi el dinero gastamos

guitarras compramos

canciones que tanto cantamos



AREGLOS DE VIOLINES:

e---------------------------------------------------------

b---------------------------------------------------------

g--11----------------9/10-10-11---------------9/10-10-11--

D------10/11----13---------------10/11----13--------------

A---------------------------------------------------------

E---------------------------------------------------------

Bm

No la cambio por otra,aunque no sea gran cosa



Bm D Em G

https://www.coveralia.com/acordes/negativo-bunbury.php

no,no,no, negativo,no,no,no, definitivo

Bm D

no,no,no, negativo

Em G

no,no,no, decididamente

Bm

decisivamente, definitivamente no



Bm

programas de cachi en la radio

A#m

menos quince y disco actualidad

Em

discos de elvis y biwie rayados

G

interferencias la 'muestra' y ademas

Bm

las noches del b.v.80

A#m

escapando a tocar

Em

A todos quiero gritar

G

A todos quiero gritar



AREGLOS DE VIOLINES:

e---------------------------------------------------------

b---------------------------------------------------------

g--11----------------9/10-10-11---------------9/10-10-11--

D------10/11----13---------------10/11----13--------------

A---------------------------------------------------------

E---------------------------------------------------------

Bm

No la cambio por otra, aunque no sea gran cosa



Bm D Em G

no,no,no, negativo, no,no,no, definitivo

Bm D

no,no,no, negativo,

Em G

no,no,no, decididamente

Bm

decisivamente, definitivamente no.

Bm

decididamente,

decisivamente,

definitivamente ...

Discos en los que aparece este acorde: Radical Sonora

El acorde de Negativo de Bunbury es una versión de la canción original realizada por colaboradores/usuarios de Coveralia.

¿Has encontrado algún error en esta página? Envíanos tu corrección del acorde