música
Buscador

Acorde de Need Your Love So Bad - Fleetwood Mac

Letra de Need Your Love So Bad

Tuning: 

Standard, EADGBE.



Key:

b - bend

h - hammer-on

p - pull-off

/ - slide up

\ - slide down





Intro:

A A7

E|-------------|--------------------------------------|

B|---------10--|--14b-14--------10h12----10-----------|

G|--9--11------|-------------11-------11-----11-----9/|

D|-------------|--------------------------------------|

A|-------------|--------------------------------------|

E|-------------|--------------------------------------|





D Ebdim

E|--------------------------------------------------------------|

B|----10--12----10-------10-----15b--14--10----10--12b-p10------|

G|/11--------11-------11-----11-------------11--------------11--|

D|--------------------------------------------------------------|

A|--------------------------------------------------------------|

E|--------------------------------------------------------------|





A F#m Bm E

E|-----------14-------------------------------------------------|

B|--14---------------12b-p10--12----------10h12----10--12b-p10--|

G|-------------------------------------11-------11--------------|

D|--------------------------------------------------------------|

A|--------------------------------------------------------------|

E|--------------------------------------------------------------|





A D7 A E7

E|-----------5-8--------10-11-12\-----------------------|

B|-----------7-10-------12-13-14\-----------------------|

G|------------------------------------------------------|

D|------------------------------------------------------|

A|------------------------------------------------------|

E|------------------------------------------------------|





A A7

I need someone's hand, to lead me through the night



https://www.coveralia.com/acordes/need-your-love-so-bad-fleetwood-mac.php

D Ebdim

I need someone's arms, to hold and squeeze me tight



A F#m Bm E

Now when the night begins, I'm at an end



A D7 A E7

Because I need your love so bad.





A A7

I need some lips, to feel next to mine



D Ebdim

I need someone to stand up, and tell me when I'm lyin'



A F#m Bm E

And when the lights are low, and it's time to go



A D7 A A7

That's when I need your love so bad.





D Ebdim

So why don't you give it up, and bring it home to me



A A7

Or write it on a piece of paper baby, so it can be read to me



B7

Tell me that you love me, and stop driving me mad



E F E E7

Oh because I, I need your love so bad.





A A7

I need your soft voice, to talk to me at night



D Ebdim

I don't want you to worry baby, I know we can make everything alright



A F#m Bm E

Listen to my plea, baby, bring it to me



A D7 A E7

Because I need your love so bad.





Repeat intro and fade.

Letra subida por: Anónimo

El acorde de Need Your Love So Bad de Fleetwood Mac es una versión de la canción original realizada por colaboradores/usuarios de Coveralia.

¿Has encontrado algún error en esta página? Envíanos tu corrección del acorde