música
Buscador

Acorde de Nada que ver - Grupo Karicia

INTRO



DO MI LA

Volverte a querer, volverte a amar

FA

Seria estar loco,

SOL

Si me pongo a recordar

DO

Lo que me hiciste aquel ayer

MI mi(x2)

Quien te va a querer





DO MI LA

Tu fuiste la reina, yo un simple peón

FA

Jaqueaste a mi corazon

SOL

Y ahora pretendes tu volver



Olvidando aquel ayer





LA RE

Na, na, na, nada que ver,

LA

Nada que ver, mas nada que ver x 2 *

LA RE /

Na, na, na, na, na, na, na, nada que ver, /

LA /

Nada que ver, mas nada que ver /



https://www.coveralia.com/acordes/nada-que-ver-grupo-karicia.php



* en medio de la repeticion va el SOLO





INTRO



1)---------------------------------------------------

2)--(5/10-10-10-10-8)x 2----10/13-13-13-13-13-10-10--



1)---(---------10-12-10-8-8/10- x2

2)---(-10-10-10----------------/



Ahora se repite 2 veces todo lo anterior y respues va esto:



1)-8-7-5--5-5-5-------------

2)---------------5-5-7-9----





SOLO



1)----------------------------------------------

2)--5-5-5-5-5-5-5----------------------5--------- X 2

3)----------------7-7-5-7--7-7-5-7---7---5-4-----/

4)-------------------------------------------7--/



* Les recomiendo para sacar los punteos lo hagan escuchando la

cancion.





La segunda parte de la cancion es igual que la primera, se

repite todo desde la INTRO.

Letra subida por: Anónimo

Discos en los que aparece este acorde: Discos De Oro 14 Exitos , Karicia , Antologia De Cumbia

El acorde de Nada que ver de Grupo Karicia es una versión de la canción original realizada por colaboradores/usuarios de Coveralia.

¿Has encontrado algún error en esta página? Envíanos tu corrección del acorde