música
Buscador

Acorde de Naces Creces Te Jodes Y Mueres - Mama Ladilla

Letra de Naces Creces Te Jodes Y Mueres


A5             E5
Naces un día, creces  creces

F#5             E5
Vas al colegio, aprendes memeces

A5             E5
Luego tropiezas veces y veces

F#5             E5
pero tu sigues siempre en tus trece

A5               E5
Si eres muy rico estás aburrido

F#5                E5
Si eres muy pobre estas deprimido

A5              E5
Si tienes curro vaya putada

F#5              E5
Si no lo tienes, no tienes nada

A5     E5      C5        A5
Naces, Creces, te jodes y mueres

Toda la canción sigue este esquema, escuchándola sabras 
cual es el ritmo con el que hay que dar los acordes. 
El solo es algo asi.


e [--9--9--9--9--9--9--9--9----7--7--7--7--7--7--7--7----5--5--5--5--5--5--5--5--
B [------------------------------------------------------------------------------
G [------------------------------------------------------------------------------
D [------------------------------------------------------------------------------
A [------------------------------------------------------------------------------
E [------------------------------------------------------------------------------


e [--7--7--7--9--7----9--9--9--9--11--9------------------------------------------
B [------------------------------------------------------------------------------
G [------------------------------------------------------------------------------
D [------------------------------------------------------------------------------
A [------------------------------------------------------------------------------
E [------------------------------------------------------------------------------


e [--7--7--7--7--9--7----5--5--5--5--7--5----7--7--9--7--------------------11--9-
B [----------------------------------------------------------------11--9---------
G [-------------------------------------------------------------------------10---
D [------------------------------------------------------------------------------
A [------------------------------------------------------------------------------
E [------------------------------------------------------------------------------


e [----------------------------------------------------7--9--9--9--11--9---------
B [----------11--------11--9-------------------------------------------------12--
G [------------------------------10----------------------------------------------
D [------------------------------------------------------------------------------
A [------------------------------------------------------------------------------
E [------------------------------------------------------------------------------



Letra subida por: Anónimo

Discos en los que aparece este acorde: Directamente De La Basura

El acorde de Naces Creces Te Jodes Y Mueres de Mama Ladilla es una versión de la canción original realizada por colaboradores/usuarios de Coveralia.

¿Has encontrado algún error en esta página? Envíanos tu corrección del acorde