música
Buscador

Acorde de My Speed Love - No Me Pises Que Llevo Chanclas

Letra de My Speed Love

DO LA 

DO LA



E||--------------------------|-------------------------|

B||--------------------------|-------------------------|

G||------------2-X-----------|-----------2-X---------X-|

D||-------X-2------2-X-X-2---|-------X-2-----2-X-X-2---|

A||-X-2-3------------------3-|-X-2-3-------------------|

E||--------------------------|-------------------------|

DO

Tengo una novia que es mu ligerita

LAm

y no consigo que este quietecita

DO

cuando yo quiero pelar la pavita

LAm

ella prefiere echarse carreritas

DO

para un poco el carro para un poco nena

LAm

que llevo la lengua siempre llena arena

DO

yo solo quiero decirte que te quiero

LAm

pero cuando hablo siempre coge el vuelo





PRE-ESTRIBILLO

RE

chubidubida ayy que buena esta

SOL

chubidubida azujetalaa

RE

chubidubida yo voy a reventar

SOL

chubidubida aaaaaa



DO

Ella nunca duerme, siempre esta despierta

LAm

y eso es una cosa que me desconcierta

DO

solo esta tranquila cuando bebe tila

LAm

y no es de gasoil, es de gasolina

DO

anda parate, anda calmate

LAm

dame un abracito pero despacito

DO

y yo te dire, y yo te dire

LAm

lo que yo te amo pero tranquilito





PRE-ESTRIBILLO

RE

chubidubida ayy que buena esta

SOL

chubidubida azujetalaa

RE

chubidubida yo voy a reventar

https://www.coveralia.com/acordes/my-speed-love-no-me-pises-que-llevo-chanclas.php

SOL

chubidubida aaaaaa



ESTRIBILLO

DO LAm

looove woo woo my speed love

DO LAm

ooooh woo woo my speed love



E||-----X-8-7-5-3-5-X-X-5-X-X-5-X-X-5-X-X---|

B||-1-3-------------------------------------|

G||-----------------------------------------|

D||-----------------------------------------|

A||-----------------------------------------|

E||-----------------------------------------|



E||-----------------------------------------|

B||-3-3-3-3-3-1-1-----1-1-------------------|

G||---------------X-2-----X-------------X---|

D||-------------------------2-X-X-X-X-2-----|

A||-----------------------------------------|

E||-----------------------------------------|





RE (un toque) RE

No me hagas sufrir mas

SOL (un toque) SOL

te voy a tener que amarrar

RE (un toque) RE

ayy por favor

SOL

no me corras mas mas mas mas





ESTRIBILLO

DO LAm

shalalalalala shalalalalala

DO LAm

shalalalalala shalalalalala

DO LAm

ooooh woo woo my speed love

DO LAm

ooooh woo woo my speed love





PRE-ESTRIBILLO

RE

chubidubida ayy que buena esta

SOL

chubidubida azujetalaa

RE

chubidubida yo voy a reventar

SOL

chubidubida aaaaaa



DO LAm

ooooh woo woo my speed love

DO LAm

ooooh woo woo my speed love

DO

my speed lovee

Letra subida por: Anónimo

Discos en los que aparece este acorde: ¿Me Corto Las Venas... O Me Las Dejo Largas?

El acorde de My Speed Love de No Me Pises Que Llevo Chanclas es una versión de la canción original realizada por colaboradores/usuarios de Coveralia.

¿Has encontrado algún error en esta página? Envíanos tu corrección del acorde