música
Buscador

Acorde de Musas - Catupecu Machu

Letra de Musas



Intro:



Las "x" son golpes a las cuerdas enmudecidas. Donde está la

"s" hagan un slide, es decir, un "deslizamiento" del traste

9 al trate 1.



E|-------------------------------x-x-|-------------------------------x-------|

A|-2--4--------4--0--2--4--------x-x-|-2--4--------4--0--2--4--------x-9-s-1-|

D|-------2--1--------------4--4--x-x-|-------2--1--------------4--4--x-9-s-1-|

G|-------------------------------x-x-|-------------------------------x-------|

B|-------------------------------x-x-|-------------------------------x-------|

e|-------------------------------x-x-|-------------------------------x-------|



E|------------------------------3--0-------0------------------|

A|-2--4--------4--0--2--4----------2-------2------------------|

D|-------2--1--------------4--4----2-------4------------------|

G|---------------------------------1-------1------------------|

B|---------------------------------0-------0------------------|

e|---------------------------------0-------0------------------|



E|-------------------------------x-x-|-------------------------------x-------|

A|-2--4--------4--0--2--4--------x-x-|-2--4--------4--0--2--4--------x-9-s-1-|

D|-------2--1--------------4--4--x-x-|-------2--1--------------4--4--x-9-s-1-|

G|-------------------------------x-x-|-------------------------------x-------|

B|-------------------------------x-x-|-------------------------------x-------|

e|-------------------------------x-x-|-------------------------------x-------|



E|------------------------------3--0-------0-0--4-4-----------|

A|-2--4--------4--0--2--4----------2-----------------4-4--2-2-|

D|-------2--1--------------4--4----2--------------------------|

G|---------------------------------1--------------------------|

B|---------------------------------0--------------------------|

e|---------------------------------0--------------------------|



G#m G#m9 G#m G#m9 G#m7 E

Hablo con musas, las mías, las tuyas y las de los demás.

G#m G#m9 G#m G#m9 G#m7 E

Sé que me escuchas, quiero que luzcas tu mirada mortal.

G#m G#m9 G#m

Porque muero cuando te cruzas, hablo en lenguas,

G#m9 G#m7 E Eadd9

hablo en mudas palabras que quiero escuchar, escuchar...

https://www.coveralia.com/acordes/musas-catupecu-machu.php



B

ENCIENDEN TODAS LAS LUCES,

B E

Y BAILEMOS HASTA QUE ALGUIEN CIERRE EL LUGAR.

B

SUENAN FUERTE LOS COROS CON LLANTOS,

B E

Y LA ORQUESTA SUENA COMO EN EL CINE AL FINAL.



G#m G#m9 G#m

Te escondés en el bosque del cuento, te bañás en el lago,

G#m9 G#m7 E

te espío y la ropa te vengo a robar.

G#m G#m9 G#m

Gritás y tu enojo me asusta, y el viento,

G#m9 G#m7 E

tormenta de pronto invade el lugar.

G#m G#m9 G#m G#m9

Corremos buscamos un árbol, qué miedos,

G#m7 E Eadd9

yo te voy a cuidar, a cuidar.



B

ENCIENDEN TODAS LAS LUCES,

B E

Y BAILEMOS HASTA QUE ALGUIEN CIERRE EL LUGAR.

B

SUENAN FUERTE LOS COROS CON LLANTOS,

B E

Y LA ORQUESTA SUENA COMO EN EL CINE AL FINAL.



B

ENCIENDEN TODAS LAS LUCES,

B E

Y BAILEMOS HASTA QUE ALGUIEN CIERRE EL LUGAR.

B

SUENAN FUERTE LOS COROS CON LLANTOS,

B E

Y LA ORQUESTA SUENA COMO EN EL CINE AL FINAL.





Letra subida por: Anónimo

El acorde de Musas de Catupecu Machu es una versión de la canción original realizada por colaboradores/usuarios de Coveralia.

¿Has encontrado algún error en esta página? Envíanos tu corrección del acorde