música
Buscador

Acorde de Multirricachón - Chancho En Piedra

Letra de Multirricachón

   Am    G     C     D     E

|--5--|--3--|--3--|--5--|--7--|

|--5--|--3--|--5--|--7--|--9--|

|--5--|--4--|--5--|--7--|--9--|

|--7--|--5--|--5--|--7--|--9--|

|-----|-----|-----|-----|-----|

|-----|-----|-----|-----|-----|





INTRO: Am - G - Am





Am G Am G

Un señor multi-ricachón disfrazó su fortuna

Am G Am G

se largó para presenciar la vida en la basura

Am G Am G

no le gustó la miseria, ni la necesidad de la gente

Am G Am G

transformándolo en demente, regalando sus finuras





Am C D C

te aseguro que regaló las riquezas de familia

Am C D C

te aseguro que obsequió hasta su propia dentadura







Am G Am G

reunió a todo el mundo en su mansión y se armó una gran fiesta

Am G Am G

cada persona se retiró con algún objeto de valor

Am G Am G

el señor múlti-ricachón agotó su dinero

Am G Am G

no encontró nada mejor que regalar amor sincero







Am C D C

te aseguro que regaló las riquezas de familia

Am C D C

te aseguro que obsequió hasta su propia dentadura

Am C D C

te aseguro que no se arrepintió consecuente a su postura

Am C D E

te aseguro que feliz vivió este multi-ricachón





******************************************************************

ricachón ricachón viejo loco ex multi-ricachón



x3

|--------8----------7----------8----8--7--|

|------8---8------8---8------8---8--8--7--|

|--8s9--------8s9--------8s9--------9--7--|

|-----------------------------------------|

|-----------------------------------------|

|-----------------------------------------|



https://www.coveralia.com/acordes/multirricachon-chancho-en-piedra.php



Am

|--------8----------7------5--|

|------8---8------8---8----5--|

|--8s9--------8s9-------9--5--|

|--------------------------7--|

|-----------------------------|

|-----------------------------|



******************************************************************

Am - G

Esto es... Chancho en Piedra...







Am C D C

te aseguro que regaló las riquezas de familia

Am C D C

te aseguro que obsequió hasta su propia dentadura

Am C D C

te aseguro que no se arrepintió consecuente a su postura

Am C D E

te aseguro que feliz vivió este multi-ricachón





Am C D C

hombre multi-ricachón personaje bonachón

Am C D C

de todo se desprendió este multi-ricachón

Am C D C

feliz vivió, feliz vivió, de todo se desprendió

Am C

sin casa, sin guita, en la nada

D E

que extraña situación que vivió





******************************************************************

ricachón ricachón viejo loco ex multi-ricachón



x3

|--------8----------7----------8----8--7--|

|------8---8------8---8------8---8--8--7--|

|--8s9--------8s9--------8s9--------9--7--|

|-----------------------------------------|

|-----------------------------------------|

|-----------------------------------------|





Am

|--------8----------7------5--|

|------8---8------8---8----5--|

|--8s9--------8s9-------9--5--|

|--------------------------7--|

|-----------------------------|

|-----------------------------|







Letra subida por: Anónimo

Discos en los que aparece este acorde: La Porcina Comedia: Purgatorio

El acorde de Multirricachón de Chancho En Piedra es una versión de la canción original realizada por colaboradores/usuarios de Coveralia.

¿Has encontrado algún error en esta página? Envíanos tu corrección del acorde