música
Buscador

Acorde de Mujer Sin Nombre - Manal

Letra de Mujer Sin Nombre

Verso "El tiempo es ahora o nunca..."



G|---------------------------------------------------------|

D|----------------------3-3-3-3-3-3-3---4-4-4-4-4-4-4------|

A|-(3)s5-5-5-5-5-5-5--3---------------3---------------(3h5)|

E|---------------------------------------------------------|



"Es mi sueño vos y yo..."



G|-----------------------------------|

D|-5-4-2-------------------5---------|

A|-------5-4-2-0-(0-5)---5---5-3-2-0-|

E|---------------------3-------------|



"Te miro y me desespero..."



G|---------------------------------------------------------|

D|----------------------3-3-3-3-3-3-3---4-4-4-4-4-4-4------|

A|-(3)s5-5-5-5-5-5-5--3---------------3---------------(3h5)|

E|---------------------------------------------------------|



"Te devora la ciudad..."



G|-------------------------------------------------|

D|-5-4-2-------------------5------------------5-6-7|

A|-------5-4-2-0-(0-5)---5---5-3-2-0-(0-5)--5------|

E|---------------------3------------------3--------|



G|-----------5---------5--------|

D|---5---5-7-----5-6-7----------|

A|-7---7-------7---------7b-----|

E|--------------------------(6)-|



G|-------------4-5---3-4-11-8-9------4----------------------------|

D|-------7-4-5-----4------------11-----6-7-4-----5-4--------------|

A|---4-5---------------------------9-----------6-----7-5-4--------|

E|-5-----------------------------------------7-------------7-(0-0)|

https://www.coveralia.com/acordes/mujer-sin-nombre-manal.php



G|---------------4-----3-11-8-9------4------------------------------|

D|-------7-4-5-7---2s4----------11-----7-6-7-4----------------------|

A|---4-5---------------------------9-------------5h6-9s7-7-5-4------|

E|-5-------------------------------------------7---------------7-(0)|



Verso "El tiempo es ahora o nunca..."



G|---------------------------------------------------------|

D|----------------------3-3-3-3-3-3-3---4-4-4-4-4-4-4------|

A|-(3)s5-5-5-5-5-5-5--3---------------3---------------(3h5)|

E|---------------------------------------------------------|



"Es mi sueño vos y yo..."



G|-------------------------------------------------|

D|-5-4-2-------------------5---------------5-------|

A|-------5-4-2-0-(0-5)---5---5-3-2-0-2---5----5----|

E|---------------------3---------------3--------5-5|



G|-----------5---------5--------|

D|---------7-----5-6-7------5---|

A|---4h5h7-----7---------7b-----|

E|-5----------------------------|



G|-------------------3-4-11-8-9------4------------------------------------|

D|-7-5-4-5---------4------------11-----7-6-7-4----------------------------|

A|---------7---4-7-----------------9-------------5h6-7-7-7-5-5-5-4-4-4----|

E|-----------5---------------------------------7-----------------------7-7|



G|---------------------11-8h9-----------------------------------|

D|-------7-4-5-------8--------11---7-9-7-6-7--------------------|

A|---4-5-------7-8-9-------------9-----------9---5-6-7-5-4------|

E|-5-------------------------------------------7-----------7-5-5|



Muy buen bajo. Cualquier cosa escriban...

Letra subida por: Anónimo

Discos en los que aparece este acorde: El Leon , Manal (1972)

El acorde de Mujer Sin Nombre de Manal es una versión de la canción original realizada por colaboradores/usuarios de Coveralia.

¿Has encontrado algún error en esta página? Envíanos tu corrección del acorde