música
Buscador

Acorde de Muere, Monstruo Muere - Almafuerte

Letra de Muere, Monstruo Muere



INTRO



PARTE 1

e|---------------------------------------------|

B|---------------------------------------------|

G|-------------5---------------------------7-7-|

D|-------------5---------------------------7-7-|

A|---------5-0-3-------3---------3---------5-5-|

D|-0-3-5-0---------6-7---6-5-3-0---6-5-3-0-----|

PARTE 2

e|-----------------|

B|-----------------|

G|---------------7-|

D|---------------7-|

A|-----3---------5-|

D|-6-7---6-5-3-0-0-|





RIFF 1



e|-------------------------------------------|

B|-------------------------------------------|

G|-------------3-----5---7-----------------7-|

D|-------------3-----5---7-----------------7-|

A|-------------1-----3---5---------3-------5-|

D|-0-0-0-0-0-0---0-0---0---0-0-6-7---6-5-3-0-|



e|-------------------------------------------|

B|-------------------6-----------------------|

G|-------------3-----5---7-----------------7-|

D|-------------3-----3---7-----------------7-|

A|-------------1---------5---------3-------5-|

D|-0-0-0-0-0-0---0-0---0---0-0-6-7---6-5-3-0-|





RIFF 2



e|----------------------------------|

B|----------------------------------|

G|----------------------------------|

D|----------------------------------|

A|-7-7-7-----3-5-6--7-7-7-----0-1-3-|

D|-7-7-7-5-7--------7-7-7-3-5-------|





e|----------------------------|

B|----------------------------|

G|----------------------------|

D|----------------------------|

A|-7-7-7-----3-5-6--7-7-7-5-3-|

D|-7-7-7-5-7--------7-7-7-5-3-|





RIFF 3



e|--------------------------------|

B|--------------------------------|

G|-7-8-5-7--12-11--7-8-5-7--15-14-|

D|--------------------------------|

A|-5-6-3-5--10-9---5-6-3-5--13-12-|

D|--------------------------------|



e|---------------------------------------|

B|---------------------------------------|

G|-17-15-14-12-11-8-7--8-5-7-5-3-2-------|

D|---------------------------------------|

A|-15-13-12-10-9--6-5--6-3-5-3-1-0--5--3-|

D|----------------------------------5--3-|





RIFF 4



e|--------------------------------|

B|--------------------------------|

G|-7-8-5-7--12-11--7-8-5-7--15-14-|

D|--------------------------------|

A|-5-6-3-5--10-9---5-6-3-5--13-12-|

D|--------------------------------|



e|----------------------------------|

B|----------------------------------|

https://www.coveralia.com/acordes/muere--monstruo-muere-almafuerte.php

G|-17-15-14-12-11-8-7--8-5-7-5-3--7-|

D|--------------------------------7-|

A|-15-13-12-10-9--6-5--6-3-5-3-1--5-|

D|--------------------------------0-|



INTRO



PARTE 1 X 4

PARTE 2 X 1



-RIFF 1-

De madrugada merodeando apareció,

de su presencia me dio aviso un vecino.

Evidenciándose, harto de evasión,

enmudecido y empachado de escapismo.



-RIFF 2-

Encontré al espanto, que los re parió!

Dios me libre y guarde de que eso me llegue, yeah!



-RIFF 1-

Conmocionado el paisanaje me exigió

que me haga cargo de este engendro inaudito,

lo alcé en mi carro y lo alejé de la región

encomendándolo a Dios le dejé dicho:



-RIFF 2-

No vuelvas espanto, ya no vuelvas, no.

No vuelvas espanto, muere monstruo, muere!



RE* LA# FA SOL

De vuelta al pago, ya cumplida mi misión,

RE* LA# FA SOL

el vecindario me sonrió, agradecido.

RE* LA# FA SOL

Por ser Sábado Santo esto se recordó

RE* LA# FA SOL

como el día del espanto en el lugar donde yo vivo.



-RIFF 3-

Muere monstruo, muere!

Muere monstruo, muere!

Muere monstruo, muere!





-SOLO-



INTRO PARTE 1 X 4



LA# - LA - MI* - LA# - MI*



INTRO PARTE 2 X 1



-FIN SOLO-





De madrugada merodeando apareció,

de su presencia me dio aviso un vecino.

Evidenciándose, harto de evasión,

enmudecido y empachado de escapismo.



No vuelvas espanto, ya no vuelvas, no.

No vuelvas espanto, muere monstruo, muere!



Por ser Sábado Santo esto se recordó

como el día del espanto en el lugar donde yo vivo.



No vuelvas espanto, ya no vuelvas, no.

No vuelvas espanto, muere monstruo, muere!

Si!!!



-RIFF 4-

Muere monstruo, muere!

Muere monstruo, muere!

Muere monstruo, muere!





NOTA:

* SE TOCA LA NOTA EN LA 5° CUERDA





Letra subida por: Anónimo

Discos en los que aparece este acorde: Trillando La Fina

El acorde de Muere, Monstruo Muere de Almafuerte es una versión de la canción original realizada por colaboradores/usuarios de Coveralia.

¿Has encontrado algún error en esta página? Envíanos tu corrección del acorde