música
Buscador

Acorde de Second - Muérdeme - Caracter Latino 2011



TONALIDAD: D MAYOR



--INTRO-- *6 y luego de fondo



D

e|-----------------|

b|-----------3---3-|

g|-----2---2---2---|

d|-0-0---0---------|

a|-----------------|

E|-----------------|



--ESTROFAS--

D

Si tu sangre es tan fría



A G

Que permite hacer daño, no lo entiendo





D (A)

Me he perdido en algún paso



D

Quieres verme jodido



A G D

Como ya no te fías, vienes a comprobarlo por ti misma





Em G

Las peores con tanta diferencia



D A

De todas las semanas de mi única existencia





--PRE-ESTRIBILLO--



Em G

Y tú te dedicas a hacer gestos



D A

Y yo juraría que lo evitas



Em G

Y tú te dedicas a hacer gestos



D

https://www.coveralia.com/acordes/muerdeme-second.php
Matarías por defecto,

A

Casi un entretenimiento



--ESTRIBILLO--

D A

Muérdeme, muérdeme, muérdeme



G D (A)

Hasta asesinarme, quédate con lo que quede de ella



D A

Muérdeme, muérdeme, muérdeme,



G D (A)

Hasta desangrarme, quédate con lo que reste



D A G A D

Y luego lárgate, y luego lárgate, y luego lárgate



--INTERMEDIO-- *2

D

e|----0--2--0-0-------0--5--2-2-------0-2-0-----|

b|-2--------------3-3-------------3-3-------3-3-|

g|----------------------------------------------|

d|----------------------------------------------|

a|----------------------------------------------|

E|----------------------------------------------|





--ESTROFAS--



D A

Y si hubiera sabido adivinarte



G D

Ten seguro que volvería a darte





Em G

Mi demencia, cordura, tristeza



D

Fortuna, inocencia, ternura,

A

Maldita la luna



PRE-ESTRIBILLO, ESTRIBILLO,FINAL(=INTERMEDIO *2)

Letra subida por: Anónimo

Discos en los que aparece este acorde: Caracter Latino 2011 , Second , Second , Second

El acorde de Second - Muérdeme de Caracter Latino 2011 es una versión de la canción original realizada por colaboradores/usuarios de Coveralia.

¿Has encontrado algún error en esta página? Envíanos tu corrección del acorde