música
Buscador

Acorde de Motoralmaisangre - La Renga

Letra de Motoralmaisangre

intro: (A-B-G-D)X2



A5 B5 G5 D5

Si en sus manos ya no hay tiempo,

A5 B5 G5 D5

todo está en su corazón

A5 B5 G5 D5

Va buscando aún su estrella,

A5 B5 G5 D5

en las rutas su motor



C5 A5 RIFF

Revisa todo

C5 A5 RIFF

en tu interior

C5 A5

para salir en la mañana

G RIFF 1

detrás del sol.



C5 A5

Y al ver que en la ruta

C5 A5

hierve la sangre de tu pasión,

C5 A5

busca el secreto que trae el viento

G RIFF 1

búscalo.



A5 B5 G5 D5

El secreto de los vientos,

A5 B5 G5 D5

guarda bien en su verdad.

A5 B5 G5 D5

Ha renacido con su aliento,

A5 B5 G5 D5

para mostrarme que estoy muy atrás.





Estribillo 2



C5 A5 RIFF

Revisa todo

C5 A5

en tu interior

C5 A5

para salir en la mañana

G5 RIFF 1

detrás del sol



C5 A5

Y al ver que en la ruta

C5 A5

hierve la sangre de mi pasión

C5 A5

guarda el secreto que trae el viento

G RIFF 1

guárdalo





Puente

(A-A-A-B-C-B-A-A-A) X4



*:armonicos de dedo pulgar



|--------------------------------------

|--------------------------------5-----

|--------------------------------5-5~~-

|--------------------------------------

|-7---7-------7-7-9--7----7---7--------

|-5-X-5-X-X-X-5-5-7--5--X-5-X-5--------



------------------------------------------

--------------------------------6-8~~-----

------------------------------------------

------------------------------------------

-7---7-------7-7-9--7----7---7------------

-5-X-5-X-X-X-5-5-7--5--X-5-X-5------------



-----------------------------------------------------------

----------------------------------8b~~--8brp6-8brp6-8b~*~--

https://www.coveralia.com/acordes/motoralmaisangre-la-renga.php

-----------------------------------------------------------

-----------------------------------------------------------

--7---7-------7-7-9--7----7---7----------------------------

--5-x-5-x-x-x-5-5-7--5--x-5-x-5----------------------------



--------------------------------------------

--------------------------------------------

----------------------------------7~~-------

----------------------------------7~~-------

--7---7-------7-7-9--7----7---7-------------

--5-x-5-x-x-x-5-5-7--5--x-5-x-5-------------





Sólo Armónica

Base(C-A)X3 G MAS RIFF 1





|----------------------------------------------------------

|----8-10-10b--10b-10br-10--10b--10b-10b-10b-10b-10br-10~~-

|--9-------------------------------------------------------

|----------------------------------------------------------

|----------------------------------------------------------

|----------------------------------------------------------



-----------------------------------------------

-10br-10-10--8-8-8-10--9------10---------------

----------------------------8----8b~~--8~-7~---

-----------------------------------------------

-----------------------------------------------

-----------------------------------------------



---------------------------------------------------------------

---------------------------------------------------------------

----------------------------------------------------5----------

----------------------------------------------5---7---7-5-7~~--

------12--------12---10-9-7-5~~---5p3-5~--5/7------------------

-10-12-----10-12-----------------------------------------------



-----------------------------------------------

---------------------------8--8--8--8--8--8----

-----7brp5-7b*-7b-7brp5--7b---7b-7b-7b-7b-7b---

-----------------------------------------------

-----------------------------------------------

-----------------------------------------------



C A RIFF

revisa todo,

C A RIFF

en tu interior,

C A

para salir en la mañana

G RIFF 1

detras del sol.



C A

y al ver que en la ruta,

C A

hierve la sangre de tu pasion,

C A

guarda el secreto que trae el viento

G

guardalo.



Fin: A-A



RIFF

|-----------------

|-----------------

|-------5~~-------

|-7p5-7-----------

|-----------------

|-----------------



RIFF 1

|------------------

|------------------

|------------------

|------------------

|-----2-3-5~~------

|---3--------------

Letra subida por: Anónimo

Discos en los que aparece este acorde: Insoportablemente Vivo , Insoportablemente Vivo (Dvd)

El acorde de Motoralmaisangre de La Renga es una versión de la canción original realizada por colaboradores/usuarios de Coveralia.

¿Has encontrado algún error en esta página? Envíanos tu corrección del acorde