música
Buscador

Acorde de Moon Dude - Jessica Pratt

Letra de Moon Dude



Fig.1



Emaj7add9 (=E1) A* A

e|-(2)--2--2-2-2--2---2-2--|--0---0--0-0-0--0--0-0--|

B|-(0)--0--0-0-0--0---0-0--|--3---3--3-3-3--2--2-2--|

G|--1---1--1-1-1--1---1-1--|--4---4--4-4-4--2--2-2--|

D|--1---1--1-1-1--1---1-1--|--4---4--4-4-4--2--2-2--|

A|--2---2--2-2-2--2---2-2--|--0---0--0-0-0--0--0-0--|

E|--0---0--0-0-0--0--------|--0-------------0-------|





Fig.2



Em7add9 (=E2) A D

e|-(2)--2--2-2-2--2-2--|--0---0--0-0-0--0-0---2---2--2-2-2--2-2--|

B|-(3)--3--3-3-3--3-3--|--2---2--2-2-2--2-2---3---3--3-3-3--3-3--|

G|--0---0--0-0-0--0-0--|--2---2--2-2-2--2-2---2---2--2-2-2--2-2--|

D|--2---2--2-2-2--2-2--|--2---2--2-2-2--2-2---0---0--0-0-0--0-0--|

A|--2---2--2-2-2--2-2--|--0---0--0-0-0--0-0---0-------------0----|

E|--0---0--0-0-0--0-0--|--0-------------0------------------------|

--

Bm/F# Em7add9 A

e|--2---2--2-2-2--2-2--|-(2)--2--2-2-2--2-2---0---0--0-0-0--0-0--|

B|--3---3--3-3-3--3-3--|-(3)--3--3-3-3--3-3---2---2--2-2-2--2-2--|

G|--4---4--4-4-4--4-4--|--0---0--0-0-0--0-0---2---2--2-2-2--2-2--|

https://www.coveralia.com/acordes/moon-dude-jessica-pratt.php

D|--4---4--4-4-4--4-4--|--2---2--2-2-2--2-2---2---2--2-2-2--2-2--|

A|--2---2--2-2-2--2-2--|--2---2--2-2-2--2-2---0---0--0-0-0--0-0--|

E|--2-------------2----|--0---0--0-0-0--0-0---0-------------0----|





[Intro] Fig.1 x2



[Verse] Fig.1

E1 A* A

Moon dude, you can try the weight

E1 A* A

Of your body now in outer space

E1 A* A E1 A* A

In time, you can cast a gaze on our planet lines, ta-da



[Pre-Chorus] Fig.2

E2 A

You're on the outside, you're looking in

D

To the escalators humming

Bm/F#

They are pulling you from nothing

E2 A

But your loneliness

E2 A Asus4 (

Letra subida por: Anónimo

Discos en los que aparece este acorde: On Your Own Love Again

El acorde de Moon Dude de Jessica Pratt es una versión de la canción original realizada por colaboradores/usuarios de Coveralia.

¿Has encontrado algún error en esta página? Envíanos tu corrección del acorde