música
Buscador

Acorde de Monsters - The Pierces

Letra de Monsters

Intro: (Guitar 1 enters after 2 repeats of guitar 2, refer to song) 





G2:

e|------------------------------|

B|------------------------------|

G|------------------------------|

D|--10-----10--8--8-------------| x6

A|-----8-------------11--10-----|

E|------------------------------|







Verse:



Em Am

You and me against the world

Em Am

Like a little boy and girl

C G

There were monsters beneath our bed

D Am

And we were scared until we talked them all to sleep

Em

And then we have a laugh and stayed





e|------------------------------|

B|------------------------------|

G|------------------------------|

D|--10-----10--8--8-------------| x2

A|-----8-------------11--10-----|

E|------------------------------|





G1: Em Am

G2:

e|----------------------------------------------------------|

B|----------------------------------------------------------|

G|----------------------------------------------------------|

D|--10-----10--8--8------------11----11--10--10--8----------|

A|-----8-------------11--10-------8-----------------11------|

E|----------------------------------------------------------|



Em Am

You and me on stormy seas

Em Am

It had brought us to our knees

C G

There were dangers all around

D Am

And we were frightened by the wind and then it blew

Em

Until it blew us to dry ground





e|------------------------------|

B|------------------------------|

G|------------------------------|

D|--10-----10--8--8-------------| x2

A|-----8-------------11--10-----|

E|------------------------------|

https://www.coveralia.com/acordes/monsters-the-pierces.php







C G

Baby here we are tonight

D Am

The dark will turn into the sunlight

C G

Don't you know it always does

D

It always was

Am Em

And it will be alright





e|------------------------------|

B|------------------------------|

G|------------------------------|

D|--10-----10--8--8-------------| x2

A|-----8-------------11--10-----|

E|------------------------------|







Verse: (refer to verse above if plaing G2)



Em Am

You and me among the crowd

Em Am

I heard you shout my name out loud

C G

And there were strangers all around

D

And I was lost until the moment when you

Am Em

Came and took my hand and I was found



Em Am

You and me with no regrets

Em Am

And I will try not to forget

C G

There is nothing we could do

D

That will ever change the love we have

Am Em

Remember that my aim is true







C G

Baby here we are tonight

D Am

The dark will turn into the sunlight

C G

Don't you know it always does

D

It always was

Am Em

And it will be alright

Letra subida por: Anónimo

Discos en los que aparece este acorde: Creation (Deluxe Edition) , Creation

El acorde de Monsters de The Pierces es una versión de la canción original realizada por colaboradores/usuarios de Coveralia.

¿Has encontrado algún error en esta página? Envíanos tu corrección del acorde