música
Buscador

Acorde de Mi Ciudad - Cartel De Santa

Letra de Mi Ciudad



Intro:

Am

e|---0--------0-------0-----0-----0--------------------|

B|-----1---1----1---1---1-----1-----1------------------|

G|-2-----2--------2-------2-----2-----2----------------|

D|-----------------------------------------------------|

A|-----------------------------------------------------|

E|-----------------------------------------------------|



Em

e|-0-----0-------0-------0-----------------------------|

B|---0-----0---0---0---0---0---0-----------------------|

G|-----0-----0-------0-------0-------------------------|

D|-----------------------------------------------------|

A|-----------------------------------------------------|

E|-----------------------------------------------------|



Coro (Esto se repite dos veces dentro del coro)



e|-0-----3-----0-------3-----0-----5-----0-------5-----|

B|---1-----1-----1---1---1-----0-----0-----0---0---0---|

G|-----2-----2-----2-------2-----0-----0-----0-------0-|

D|-----------------------------------------------------|

A|-----------------------------------------------------|

E|-----------------------------------------------------|



Am

(En mi ciudad)En mi ciudad es muy fácil encontrar

Em

A un niño de la calle viviendo como animal

Am

(En mi ciudad)En mi ciudad es muy fácil observar

Em

Como un niño de la calle se transforma en criminal



Am

Por la serie de maltratos de esta pinche sociedad

Em

Inhalando pegamento pa? olvidar

Am

Que su madre es prostituta y su padre esta en el penal

Em

Y con todo este problema me hablas de humanidad





Am

Cuando duermas en banquetas y comas de la basura

Em

Cuando te alejes de dios porque te ha violado el cura

Am

https://www.coveralia.com/acordes/mi-ciudad-cartel-de-santa.php
Cuando tu único destino lo encontraste en el camino



Em

Viviendo cada día rodeado de porquería

Am

Donde el mas grande podría agandallarte la comida

Em

Tuviste que defenderte, te fuiste haciendo fuerte

Am

Cobrando cada golpe pero ahora con intereses



Coro (Se repite dos veces)

En mi ciudad...



Am

Desde muy pequeño llevas en la unión la sangre

Em

No busques soluciones ya demasiado tarde

Am

Pa? arreglar este desmadre, verdad que esta carbón

Em

Que a tu primer error te encierren en la prisión

Am

Y te sigues preguntando donde esta mi corazón

Em

No existe un momento donde haya arrepentimiento

Am

Al verte en el espejo solo ves que estos violentos

Em

Que son el documento de tu eterno sufrimiento

Am

Al hijo de un burgués nunca logres encerrarlo

Em

Te buscaran a ti para que seas enjuiciado

Am

Y así culpado de todos sus delitos

Em

Tu mayos defecto es no haber nacido rico





Coro (Se repite dos veces)

En mi ciudad...



Voces de niños de la calle:



Am-Em

(Me da para un pan, oiga ándele, le lavo el carro,

los vidrios, tengo hambre, dame una poca, le lavo el coche,

me da una moneda, trae dinero oiga)



Letra subida por: Anónimo

Discos en los que aparece este acorde: Cartel De Santa

El acorde de Mi Ciudad de Cartel De Santa es una versión de la canción original realizada por colaboradores/usuarios de Coveralia.

¿Has encontrado algún error en esta página? Envíanos tu corrección del acorde