música
Buscador

Acorde de Mentiroso - Horcas

Letra de Mentiroso

intro:

Lintro comienza con un punteo de Civile pero no lo

saque



1|------------------------------------|

2|------------------------------------|

3|------------------------------------|

4|-2-------2-------2------------------|

5|-2-------2-------2--------3-3-3-3---|

6|-0-0-0-0-0-0-0-0-0-0-0-0--1-1-1-1---|

pm.... ..... .....



Riff 1:

1|--------------------------------|

2|--------------------------------|

3|--------------------------------|

4|-2---------5-4--2---------7-8---|

5|-2---8--7--3-2--2---8--7--5-6---|

6|-0---6--5-------0---6--5--------|



Riff 2:

1|---------------------------------------------|

2|---------------------------------------------|

3|---------------------------------------------|

https://www.coveralia.com/acordes/mentiroso-horcas.php

4|-2--------------------------------------5-4--|

5|-2--------------------------------------3-2--|

6|-0-0-0-0-0--0-0-0-0--6-6-6-6--5-5-5-5--------|

pm.................................



Riff 3:

1|----------------------------------------------|

2|----------------------------------------------|

3|----------------------------------------------|

4|-2--------------------------------------7-8---|

5|-2--------------------------------------5-6---|

6|-0-0-0-0-0--0-0-0-0--6-6-6-6--5-5-5-5---------|

pm.................................



Estribillo:

1|------------------------------------|

2|------------------------------------|

3|------------------------------------|

4|-2-------2-------2------------------|

5|-2-------2-------2--------3-3-3-3---|

6|-0-0-0-0-0-0-0-0-0-0-0-0--1-1-1-1---|

pm.... ..... .....



Letra subida por: Anónimo

Discos en los que aparece este acorde: Eternos , Horcas Vive

El acorde de Mentiroso de Horcas es una versión de la canción original realizada por colaboradores/usuarios de Coveralia.

¿Has encontrado algún error en esta página? Envíanos tu corrección del acorde