música
Buscador

Acorde de Mentiras de Jarabe - Rayden

Letra de Mentiras de Jarabe


e|-----------------------------------|
B|-----------------------------------|
G|-----------------------------------|
D|---------------0-------------------|
A|------0--1--0-----0--1--0----------|
E|--3--------------------------------|

e|-----------------------------------|
B|-----------------------------------|
G|---------------3-------------------|
D|------0--1--0-----0--1--0----------|
A|--3--------------------------------|
E|-----------------------------------|

e|-----------------------------------|
B|-----------------------------------|
G|---------------3-------------------|
D|------0--1--0-----0--1--0----------|
A|--1--------------------------------|
E|-----------------------------------|

e|-----------------------------------|
B|-----------------------------------|
G|---------------2-------------------|
D|------0--1--0-----0--1--0----------|
A|--0--------------------------------|
E|-----------------------------------|

Acordes:

   EADGBe
Gm 355333
Cm 335543
Eb 668886
D  xx0232

Letra:

       Gm
Dicen, que todo lo bueno se acaba como en un cuento,
Cm
y este cuento de hadas se olvidó por dentro.
Eb
Dicen que todo se cura según va pasando el tiempo,
D
pero de mis horas muertas hay minutos de silencio.
Gm
No quiero tu cielo si no puedo volar, si no hay alas,
Cm
ni ganas de flotar, si no hay nada que celebrar,
Eb                              D
ni luchas de pijama y almohada, ni las duchas que solo dejan cal.


La vida es un tobogán, donde si subes
solo quieren verte caer o bajar,
pero nadie disfrutar del placer.
Quiero mentiras de jarabe que me sientan mal,
que me sienten bien, que me cierren las heridas de ayer.


Si el mundo termina que nos pille dormidos,
para que soñemos con lo que en la vida tuvimos.
Por eso brindo, con la botella de vino Lambrusco
que me dejaste, si es que a eso se le puede llamar vino.


(ESTRIBILLO)

“ Siento que el corazón del uso me ha dado de sí,
desatado y dilatado, de tanto latir por ti.
Que te vaya bien, que te vaya bien, que te vaya bien....
¡Nada más puedo decir!
Que te he dejado, pero no de quererte,
que te he olvidado, pero no de mi mente,
que siempre te tendré presente,
desde la hora del primer beso hasta la hora de mi muerte “

Para siempre...


Hablo de los primeros besos que nos dimos,
los últimos versos que te escribo.
Dime, que al menos seremos amigos,
que aunque nunca lo fuimos,
pero algo más que meros conocidos que van al cine.


Siempre dije ‘no vivas del recuerdo’,
que el pasado es un lastre, pero
este peso no recuerda ese viaje.
Así que deja que yo lleve a cuestas lo nuestro como equipaje,
a rastras para como un parche, para este sastre.


Que se sea sencillo, no sincero.
Por eso digo que me quedo con lo bueno.
Por eso pido que alguien te haga ver el cielo,
pero lejos, porque disfrazamos el ‘adiós’ con un ‘hasta luego’.
Si renacemos y nos encontramos en otra vida,
dame una torta sin mediar palabra en la mejilla,
para que sepa que si duele es porque siento,
y si me tratas como un perro fui animal de compañía.


(ESTRIBILLO)

Y voy a caer, y voy a caer, y voy a caer, y voy a caer,
y voy a caer, y voy a caer, y voy a caer …

Y voy a caer, y voy a caer, si te duele a ti, a mi más me va a doler,
pero aprenderé a seguir, mujer, que te vaya bien …

No, no, no, no, no …


Siento que el corazón me ha dio de sí,
del uso y de tanto latir por ti.
Del uso y de tanto latir por ti,
siento que nada más puedo decir.


“ Siento que el corazón del uso me ha dado de sí,
desatado y dilatado, de tanto latir por ti.
Que te vaya bien, que te vaya bien, que te vaya bien....
¡Nada más puedo decir!
Que te he dejado, pero no de quererte,
que te he olvidado, pero no de mi mente,
que siempre te tendré presente,
desde la hora del primer beso hasta la hora de mi muerte.
Siento que el corazón del uso me ha dado de sí,
desatado y dilatado, de tanto latir por ti.
Que te vaya bien, que te vaya bien, que te vaya bien....
¡Nada más puedo decir!
Que te he dejado, pero no de quererte,
que te he olvidado, pero no de mi mente,
que siempre te tendré presente,
desde la hora del primer beso hasta la hora de mi muerte.

Para siempre....


Letra subida por: Anónimo

Discos en los que aparece este acorde: Mosaico

El acorde de Mentiras de Jarabe de Rayden es una versión de la canción original realizada por colaboradores/usuarios de Coveralia.

¿Has encontrado algún error en esta página? Envíanos tu corrección del acorde