música
Buscador

Acorde de Men On The Edge - Iron Maiden

Letra de Men On The Edge

 Am 

E-0-------------------------------------|

B-3-1-0---------------------------------|

G-0-2-----------------------------------|

E-0-------------------------------------|

B-3-1-----------------------------------|



F

E-0-------------------------------------|

B-3-1-0---------------------------------|

G-0-2-----------------------------------|

E-0-------------------------------------|

B-3-1-----------------------------------|



D

E-0-------------------------------------|

B-3-1-0---------------------------------|

G-0-------------------------------------|





D

E-0-------------------------------------|

B-3-1-0---------------------------------|

G-0-------------------------------------|



Am

E-0-------------------------------------|

B-3-1-0---------------------------------|

G-0-2-----------------------------------|

E-0-------------------------------------|

B-3-1-----------------------------------|



D Am

The freeway is jammed And it's backed up for miles

D Am

The car is an oven and baking is wild

D Am

Nothing is ever the way it should be

D Am

What we deserve we just don't get "TO" see





E D

A briefcase, a lunch and a man on the edge

E D

Each step "GETS" closer to losing his head

E D

Is someone in heaven are they looking down

E D E

Cause nothing is fair just you look around



Am F D E

Falling down Falling down Falling down

Am F D E

Falling down Falling down Falling down





https://www.coveralia.com/acordes/men-on-the-edge-iron-maiden.php





D

He's sick of waiting of lying like this

Am

There's a hole in the sky for the angels to kiss

D

Branded a leper because you don't fit

Am

In the land of the free you "JUST" live by your wits



E F E

Once he built missiles a nation's defence

E D

Now he can't even give birthday presents

E D

Accross the city he leaves in his wake

E D E

A glimpse of the future a cannibal state





Am F D E

Falling down Falling down Falling down

Am F D E

Falling down Falling down Falling down





D Am

The freeway is jammed And it's backed up for miles

D Am

The car is an oven and baking is wild

D Am

Nothing is ever the way it should be

D Am

What we deserve we just don't get "TO" see



E D

A briefcase, a lunch and a man on the edge

E D

Each step "GETS" closer to losing his head

E D

Is someone in heaven are they looking down

E D E

Cause nothing is fair just you look around





Am F D E

Falling down Falling down Falling down

Am F D E

Falling down Falling down Falling down



Am F D E

Falling down Falling down Falling down

Am F D E

Falling down Falling down Falling down

Letra subida por: Anónimo

Discos en los que aparece este acorde: Edward The Great (The Greatest Hits)

El acorde de Men On The Edge de Iron Maiden es una versión de la canción original realizada por colaboradores/usuarios de Coveralia.

¿Has encontrado algún error en esta página? Envíanos tu corrección del acorde