música
Buscador

Acorde de Memphis Blues Again - Kiko Veneno

Letra de Memphis Blues Again



---------------------------------0--------0--4--2------

-----1-----1-----0-----0-----0---2--------0--4--2------

---2-----1-----1-----1-----1-----2--------1--4--2------

-0-----0-------------------------2--------2--6--4------

-------------4-----3-----2-------0--------2--6--4------

------------------------------------------0--4--2------



E

E C#m E C#m

El trapero va dibujando círculos por la manzana

E C#m F#m B7

yo le preguntaría pero sé muy bien que no habla

A E E C#m

Las señoras me tratan amable me van a llenar de cintas

E C#m F#m B

y en lo profundo deep in my heart sé que no tengo salida





G#m A

Oh mama esto puede ser el fin. Esto puede ser el fin

*

Atascado con el blues de Memphis sin poder salir





Mona intentó mantenerme lejos de los ferroviarios

no sabes me dijo que se beben tu sangre como el vino a diario

Yo le dije que no lo sabía pero después tirando del hilo

me acordé de aquél que una vez

me dio un puñetazo en todo el cigarrillo



https://www.coveralia.com/acordes/memphis-blues-again-kiko-veneno.php

Oh mama ...



ya se murió la abuelita ya está enterrada entre las rocas

pero la gente habla todavía de la pena que le toca

Yo ya lo estaba viendo que iba de mal en peor

últimamente la vi encendiendo candela por la calle mayor



Oh mama ...



El senador ha llegado enseñando la pistola

mañana se casa mi hijo todo el mundo está invitado a la boda

con el bajío que yo tengo todo lo malo a mí me pasa

si voy seguro me cogen de marrón debajo de un camión y sin entrada



Oh mama ...



El hombre lluvia me dió dos remedios que aliviaran mi locura

el primero era un remedio sureño el segundo ginebra pura

como un loco hice una mezcla que me estranguló el cerebro

ahora veo a la gente más fea y he perdido el sentido del tiempo



Oh mama ...





Final:



B--------------------------2----------------

G--------------------------2----------------

D--2-0-----4-2-1---2-0-----2----------------

A------4-2-------4-----4-2-0----------------

Letra subida por: Anónimo

Discos en los que aparece este acorde: Un Ratito De Gloria , Esta Muy Bien Eso Del Cariño

El acorde de Memphis Blues Again de Kiko Veneno es una versión de la canción original realizada por colaboradores/usuarios de Coveralia.

¿Has encontrado algún error en esta página? Envíanos tu corrección del acorde