música
Buscador

Acorde de Mejor Morir En Pie - Tierra Santa

Letra de Mejor Morir En Pie



-----------------------------------------------------------

-----------------------------------------------------------

---5-7-4-5---------5-7-4-5-----5-7-4-5---5-5-4-7-5-4-------

-7---------7-3-5-7---------5-7---------7-5-5-4-------7-5-7-

-7-----------3-5-7---------5-7-----------3-3-2-------------

-5-----------1-3-5---------3-5-----------------------------





A5 G5 A5B5C5

-----------------------------------------------------------

-----------------------------------------------------------

-5-7-4-5-----5-7-4-5---5-7-4-5-------4-7-5-4-------4-5-7-5-

---------7---------------------7-5-7---------7-5-7---------

-----------------------------------------------------------

-----------------------------------------------------------

B5

-----------------------------------------------------------

-------7-5-4-----------------------------------------------

---4---------5-7-------------------------------------------

-7---------------------------------------------------------

-----------------------------------------------------------

-----------------------------------------------------------



A5

Sé que nadie elige tropezar

A5 G5

En las piedras que están en el camino

A5

Sé que cuando empiece a caminar

A5 G5

He de labrar yo mi propio destino



F5 G5 A5/B5/C5/D5/C5/B5

Ser quien decida cuantos pasos he de dar

F5 G5 D5/C5/B5/A5/B5/C5

Ser libre para elegir

F5 G5 A5/B5/C5/D5/C5/B5 E5 F5/E5

Si por vivir no he de ser dueño de mí

C5 B5 A5

Mejor en pie morir



A5

Sé que en esta vida hay que vivir

A5 G5

Con el dolor que dan las heridas

A5

Sé que al caminar he de sufrir

A5 G5

Y cada vez será más dura la caída



F5 G5 A5/B5/C5/D5/C5/B5

No he de rendirme aunque caiga al andar

F5 G5 D5/C5/B5/A5/B5/C5

No estaré vivo si he de huir

F5 G5 A5/B5/C5/D5/C5/B5 E5 F5/E5

https://www.coveralia.com/acordes/mejor-morir-en-pie-tierra-santa.php

Si por vivir no he de ser dueño de mí

C5 B5 A5

Mejor en pie morir





A5 G5 A5B5C5

-----------------------------------------------------------

-----------------------------------------------------------

-5-7-4-5-----5-7-4-5---5-7-4-5-------4-7-5-4-------4-5-7-5-

---------7---------------------7-5-7---------7-5-7---------

-----------------------------------------------------------

-----------------------------------------------------------

B5

-----------------------------------------------------------

-------7-5-4-----------------------------------------------

---4---------5-7-------------------------------------------

-7---------------------------------------------------------

-----------------------------------------------------------

-----------------------------------------------------------



(Ahora viene un solo de guitarra que no se sacar)



A5 G5 A5B5C5

-----------------------------------------------------------

-----------------------------------------------------------

-5-7-4-5-----5-7-4-5---5-7-4-5-------4-7-5-4-------4-5-7-5-

---------7---------------------7-5-7---------7-5-7---------

-----------------------------------------------------------

-----------------------------------------------------------

B5

-----------------------------------------------------------

-------7-5-4-----------------------------------------------

---4---------5-7-------------------------------------------

-7---------------------------------------------------------

-----------------------------------------------------------

-----------------------------------------------------------



A5

Nunca nadie habrá de doblegar

A5 G5

El valor que alimenta mi vida

A5

Nunca harán mi pierna arrodillar

A5 G5

Aunque el dolor atormente mis heridas



F5 G5 A5/B5/C5/D5/C5/B5

No habrá quien pueda mi espíritu quebrar

F5 G5 D5/C5/B5/A5/B5/C5

Vencer mi alma ni mi fe

F5 G5 A5/B5/C5/D5/C5/B5 E5 F5/E5

Si he de caer, antes elijo poder

C5 B5 A5

Mejor morir en pie

Letra subida por: Anónimo

Discos en los que aparece este acorde: Mejor Morir En Pie , 1997-2007

El acorde de Mejor Morir En Pie de Tierra Santa es una versión de la canción original realizada por colaboradores/usuarios de Coveralia.

¿Has encontrado algún error en esta página? Envíanos tu corrección del acorde