música
Buscador

Acorde de Me Tomé Una Pastilla... - Division Minuscula

Letra de Me Tomé Una Pastilla...





Los acordes son:



C Cmaj7 Am G G7 F

e 0 0 0 3 1 1

B 1 0 1 3 0 1

G 0 0 2 4 0 2

D 2 2 2 5 0 3

A 3 3 0 5 2 3

E 0 0 0 3 3 1





Me tome una pastilla



me juraron que haría



olvidarme de que no estas aqui



y entre frascos vacios



que hoy alfombran mi barco



no despierto ni puedo dormir,

Am

estoy bien



C,Am,G7



e------------------------

B-1-0---0--------0--1--0-

G-0-0-2-0-2-0-2--0--2--0-

D-----2---2-0-2---------- x2

A------------------------

E------------------------



C

Me tome una pastilla



me juraron que haría

Am G7

olvidarme de que no estas aqui

C

y entre frascos vacios



que hoy alfombran mi barco

Am G7

no despierto ni puedo dormir,

Am G7

estoy bien

C

Y preguntas:

F C

Pirata dime como estas?

Cmaj7

Como te trata la mar?

Am G7

Aqui alguien te extraña

C F

y cuenta las horas

G F C Am G7

pero nada cuenta si tu no estas



C,Am,G7



e------------------------

B-1-0---0--------0--1--0-

G-0-0-2-0-2-0-2--0--2--0-

D-----2---2-0-2---------- x2

A------------------------

E------------------------



C

Me tome una pastilla



me juaraon que haría,

Am G7

ahhhhh ahhhhh

C

me tome una pastilla



me juraron que haría,

Am G7

ahhhhh ahhhhh



C

Mira estas luces y esta gente

Am G7

es tan frio este lugar

C

cambie el aire de mis pulmones

Am

por tu perfume

G7 Am G7

solo asi podria estar bien

C

Y preguntas:

F C

Pirata dime como estas?

Cmaj7

Como te trata la mar?

Am G7

Aqui alguien te extraña

C F

y cuenta las horas

G F Am G7

pero nada cuenta si tu no estas

C

Y preguntas:

https://www.coveralia.com/acordes/me-tome-una-pastilla----division-minuscula.php

F C

Pirata dime como estas?

Cmaj7

Como te trata la mar?

Am G7

Aqui alguien te extraña

C F

y cuenta las horas

G F Am

pero nada cuenta si tu no estas

G7 C

Y si algun dia de estos regreso

G7 Am

sigues aqui por casualidad

G7

pelearia contra el tiempo

G

tatuaria estos momentos

F Am G7 C G7

y tal vez y me olvide del mar

Am

del mar...

G F C

uuuuu uuuuu uuuuu



Nota: las siguientes dos partes se tocan con dos

guitarras, la primera turnándose y la segunda los

dos al mismo tiempo.



1ª.C,Am,G7



Guit1

e---0-----0-----

B-3-----3-------

G---------------

D---------------

A---------------

E---------------

x2

Guit2

e----3-0--------

B---------------

G-----------2-0-

D---------------

A---------------

E---------------



2ª.C,Am,G7



Guit1 (Si están juntos los num.es que son ligados)

e---------------------------------------------------------------

B-23-23----1---23-23----0-1---23-23----1---23-23--35-5-5-5------

G--------2---2--------2--------------2---2----------------------

D---------------------------------------------------------------

A---------------------------------------------------------------

E---------------------------------------------------------------



Guit2

e-------7-----------7-----------7-----------8-----------7-------

B---8-----8-----8-----8-----8-----8-----8-----8-----8-----8-----

G-9---9-----9-9---9-----9-9---9-----9-9---9-----9-9---9-----9---

D---------------------------------------------------------------

A---------------------------------------------------------------

E---------------------------------------------------------------



-------7-----------7-----------8-

---8-----8-----8-----8-----8-----

-9---9-----9-9---9-----9-9---9---

---------------------------------

---------------------------------

---------------------------------



3ª.Am,G7,C,F,C,Cmej7 (En esta parte los num.no están ligados)



e-8-----10-8-7-8-----10-8-7------------

B---8-6----------8-6-------------------

G---------------------------7--5--2--0-

D--------------------------------------

A--------------------------------------

E--------------------------------------



4ª.Am,G7,C,F,G,F



e-8-----10-8-7-8-----10----------------------------------

B---8-6----------8-6------------5-8-5-8----------5-8-5-8-

G-----------------------5-7-5-7----------5-7-5-7---------

D--------------------------------------------------------

A--------------------------------------------------------

E--------------------------------------------------------



Am,G7



C

Y preguntas:

F C

Pirata dime como estas?

Cmaj7

Como te trata la mar?

Am G7

Aqui alguien te extraña

C F

y cuenta las horas

G F

pero nada cuenta si tu no estas



C,Am,F,G (varias veces)





Letra subida por: Anónimo

Discos en los que aparece este acorde: Defecto Perfecto

El acorde de Me Tomé Una Pastilla... de Division Minuscula es una versión de la canción original realizada por colaboradores/usuarios de Coveralia.

¿Has encontrado algún error en esta página? Envíanos tu corrección del acorde