música
Buscador

Acorde de Me Quedaré Sólo - Amistades Peligrosas

Letra de Me Quedaré Sólo

Int: 3 veces



MI SI DO#m

e|--0-----0-----0-----0--2--4--0--2-----2-----2-----5--4--2--0--4-----4---|

b|-----0-----0-----0-----------------0-----0-----0-----------------2-----2|

g|------------------------------------------------------------------------|

D|------------------------------------------------------------------------|

A|------------------------------------------------------------------------|

E|------------------------------------------------------------------------|



LA SI

e|--4-----4--2--0--------0-----0------------------------------------------|

b|-----2-----------4--2-----2-----4-----4---------------------------------|

g|-----------------------------------4-----4------------------------------|

D|------------------------------------------------------------------------|

A|------------------------------------------------------------------------|

E|------------------------------------------------------------------------|





DO#m

Gritar quién o cuál

SI

Ahora da igual, te juro da igual

DO#m

Que hagas bien o mal

SI

Si es que al final



La gente se va y ahí estás

LA

A ti

DO#m

Que puedes arreglar mi vida

LA

Capaz

SOL#m

Como eres de ser día a día

SI

Día a día

MI SI

Tía, sin tu alegría

DO#m

Seré un pringao

LA SI

Yo no me merezco la pena

MI SI

Tía, sin tú valía

DO#m

Caeré en picao

LA SI

Me quedaré solo



MI SI DO#m



LA SI

Me quedaré solo



Intro

https://www.coveralia.com/acordes/me-quedare-solo-amistades-peligrosas.php


DO#m

Sabes bien, tal vez

SI

No pueda cambiar



No vaya a cambiar jamás

DO#m

Caer bien o mal

SI

Se acerca el final



MI triste final

LA

Y tú

DO#m

Que ansías controlar mi vida

LA

LA paz

SOL#m

Con guerras son mi día a día

SI

Día a día

MI SI

Tía, sin tu alegría

DO#m

Seré un pringao

LA SI

Yo no me merezco la pena

MI SI

Tía, sin tú valía

DO#m

Caeré en picao

LA SI

Me quedaré solo



MI SI DO#m



LA SI

Me quedaré solo



INTRO: 3 veces



MI SI

Sin un día, sin tu alegría

DO#m

Seré un pringao

LA SI

Me quedaré solo

MI SI

Sin un día, sin tu valía

DO#m

Caeré en picao

LA SI

Me quedaré solo

(Se repite 3 veces)

Letra subida por: Anónimo

Discos en los que aparece este acorde: La Profecia , Grandes Exitos , Lucha Rock , Coleccion Grandes

El acorde de Me Quedaré Sólo de Amistades Peligrosas es una versión de la canción original realizada por colaboradores/usuarios de Coveralia.

¿Has encontrado algún error en esta página? Envíanos tu corrección del acorde