música
Buscador

Acorde de Me Olvidarás - Yuridia

Letra de Me Olvidarás



E A D G B E

A* 5 7 7 6 5 5

E* 4 7 6 4 5 4

D* 2 5 4 2 3 2



los acordes:



E A D G B E

C#5 X 4 6 6 X X

D5 X 5 7 7 X X

E5 0 2 2 X X X

F#5 2 4 4 X X X

G#5 4 6 6 X X X

A5 X 0 2 2 X X

B5 X 2 4 4 X X



Intro: A

A E

Sabes que yo, no se olvidar

G D

Me tiembla el corazón, me falta voluntad

A E

Tu mi peor debilidad,

G Dm

te miro y mi valor se empieza a derrumbar.



(F#m) (F) (E) (B)

Pero se que te vas decidiste por los dos

D E

Que no queda más, que decir adiós



(Coro)

A* E* F#m E

Me olvidaras y nuestro amor,

D* A D E

Se perderá, como la noche, como el tiempo en el reloj

A* E* F#m E D* A

Me quedara solo dolor… caminos cerrados,

D E

lluvia en mi interior.



A E

Me asustara la oscuridad

G Dm

Y no sabré que hacer con tanta soledad

(F#m) (F) (E) (B)

Y seré para ti un recuerdo en un rincón

D E

Una foto gris en tu corazón…



(Coro)

A* E* F#m E

Me olvidaras y nuestro amor,

D* A D E

Se perderá, como la noche, como el tiempo en el reloj

A* E* F#m E D* A

Me quedara solo dolor… caminos cerrados,

D E

lluvia en mi interior.



https://www.coveralia.com/acordes/me-olvidaras-yuridia.php

(Puente)

F#5 C#5 D5 E5 A5 G#5

Quiero escapar, retroceder. Quiero borrarte de mi piel

F#5/E5/F#5 C#5

Pero en tu amor vuelvo a caer…

D5 C#5 B5 E

Y no puedo odiarte u olvidarteee!!!!





Solo:



A* E* F#m E D A

1-----5--4---4/5---5-/-4---4/5-------------------5----------------

2--5-------5------------5---------2--------2--5-----5--5/7--4/5---

3------------------------------------2--4-------------------------

4-----------------------------------------------------------------

5-----------------------------------------------------------------

6-----------------------------------------------------------------

D E

1-----------------------------------0

2--3/2/3--2--------0h2-5-2p0--------2

3------------4--2--------------2p1--2

4-----------------------------------2

5-----------------------------------0

6------------------------------------





A* E* F#m E D* A

Me quedara solo dolor… caminos cerrados,

D E

Lluvia en mi interior.





A E G D

1--0h2-------2p0---

2-------3----------

3----------2------2

4------------------

5------------------

6------------------



FIN…





Comienzas una nueva etapa de tu vida y me alegra en demasía

por ke será mucho mejor ke la anterior,

me entrizteze saber ke no sere parte de esa nueva etapa,

pero ke mejor alegria, ke el saber seras muy feliz…



“Me olvidaras y nuestro amor

se perderá como la noche…

como el tiempo en el reloj,

me quedara solo dolor, caminos cerrados…

lucha en mi interior…”



“Quiza solo llegue a ser ese recuerdo

en un rincón olvidado de tu corazón…

pero tu siempre tendrás en mi ese lugar especial

que ocupaste un día”



Letra subida por: Anónimo

Discos en los que aparece este acorde: Nada Es Color De Rosa , Lo Esencial De Yuridia , Personalidad

El acorde de Me Olvidarás de Yuridia es una versión de la canción original realizada por colaboradores/usuarios de Coveralia.

¿Has encontrado algún error en esta página? Envíanos tu corrección del acorde