música
Buscador

Acorde de Me Colé En Una Fiesta - Mecano

Letra de Me Colé En Una Fiesta

Intro: 



D G F G

e|--------5-3-----5------8-7-|

B|-7----3--------------6-----|

G|---------------------------|

D|---------------------------|

A|---------------------------|

E|---------------------------|



Am G F

e|-8--------------------------10-12---8------------------|

B|---10---8----------------13-----------10---8-----------|

G|------9------9---------------------------9------9------|

D|----------10---9 10--------------------------10---9-10-|

A|-------------------------------------------------------|

E|-------------------------------------------------------|



Em F (G)

e|-15--12--10--7--5--3--5--7-|

B|---------------------------|

G|---------------------------|

D|---------------------------|

A|---------------------------|

E|---------------------------|



Luego toca estos acordes:



Am F Em F (G)





Verso:

Am F

No me invito...pero yo fui,

Em

tras la esquina espero el momento

F (G)

en que no me miren y meterme dentro



Am F

Era mi oooooooportunidad

https://www.coveralia.com/acordes/me-cole-en-una-fiesta-mecano.php

Em

unos entran, otros van saliendo

F (G)

y entre el barullo yo me cuelo dentro





Coro:

C Am

Alli me cole y en tu fiesta me plante

Em G

Coca Cola para todos y algo de comer

C Am

mucha niña mona pero ninguna sola

Em G

luces de colores, lo pasare bien



Dm F Am

yo me preguntaba...quien me la puede presentar?

Dm F Am

yo me preguntaba...que es lo que le voy a contar?





Verso 2:

Am F

La vi pasar y me escondi

Em

con su traje transparente

F (G)

iba provocando a la gente



Am F

ella me vio y se acerco

Em

el flechazo fue instantaneo

F G

y cayo entre mis brazos





Se repite el coro



Letra subida por: Anónimo

El acorde de Me Colé En Una Fiesta de Mecano es una versión de la canción original realizada por colaboradores/usuarios de Coveralia.

¿Has encontrado algún error en esta página? Envíanos tu corrección del acorde