música
Buscador

Acorde de Low Expectations - Edwyn Collins

Letra de Low Expectations

Chords used G Am C.



Note - C is e|3 in the chorus (finger-picked obviously)

B|1

G|0

D|2

A|3

E|

Main riff:



G

e|----------------------------------------------------------------

B|----0-3----01---0-----0-1-0---0-----0-3----01---0-----0-1-----3-

G|----------------------------0-------------------------------0---

D|----0-------0-------0-------0-------0-------0-------0-------0---

A|----------------------------------------------------------------

E|3-------3-------3-------3-------3-------3-------3-------3-------



Am

e|----------------------------------------------------------------

B|----0-1---------1-3---0-----0-1-----0-1---------1-3---0-----0-1-

G|----------2---------------2---------------2---------------2-----

D|----2-------2-------2-------2-------2-------2-------2-------2---

A|0-------0-------0-------0-------0-------0-------0-------0-------

E|----------------------------------------------------------------



Intro: G



G Am

So you've set out on you're own



You've shut up shop

G

You're leaving home

Am

You feel no need to settle down



In the crippled crook

G

Of your earth bound town

C Am G

And you've been down this road before

C Am G

Which is not to say you're bored

C Am G

Or that you shouldn't want for more

C Am

It's just your expectations...

G

Should be lower



G Am

There must be something more than this

G

https://www.coveralia.com/acordes/low-expectations-edwyn-collins.php

More than ideal homes or domestic bliss

Am

What is there left for you to do



'Cos you've seen the future

G

And it's nothing new



C Am G

And you've been down this road before

C Am G

Which is not to say you're bored

C Am G

Or that you shouldn't want for more

C Am

It's just your expectations...

G

Should be lower

G

Should be lower



(Solo over verse chords.)



C Am G

And you've been down this road before

C Am G

Which is not to say you're bored

C Am G

Or that you shouldn't want for more

C Am

It's just your expectations...

G

Should be lower

G

Should be lower



Instrumental break/Solo (I haven't been bothered to type out the timing consistently for this

part, so please exercise your judgement)



e|-7-5-3--------------5---7---3---5--------

B|-8-5-0-3-3------------5---3-------5-3-1-0

G|-------0-0-5-4-7-4-5---------------------

D|-----------7-5-9-5-7---------------------

A|-----------------------------------------

E|-----------------------------------------



e|-7-5-3-5-7-8 ---88-7-5-8--88-7-5-3-----------

B|-8-5-0-5-8-10---55-8-5-5--55-8-5-3-----------

G|------------------------------------353-1----

D|------------------------------------------20-

A|---------------------------------------------

E|---------------------------------------------

Letra subida por: Anónimo

Discos en los que aparece este acorde: Gorgeous George

El acorde de Low Expectations de Edwyn Collins es una versión de la canción original realizada por colaboradores/usuarios de Coveralia.

¿Has encontrado algún error en esta página? Envíanos tu corrección del acorde